Plant Robert - 29 Palms Solo Chords & Tabs

 

29 Palms Solo Chords & Tabs

Plant Robert Chords & Tabs

Version: 1 Type: Tab 0 ratings
1 star 2 stars 3 stars 4 stars 5 stars
comments

29 Palms Solo Tab

   
#----------------------------------PLEASE NOTE---------------------------------#
#This file is the author's own work and represents their interpretation of the #
#song. You may only use this file for private study, scholarship, or research. #
#------------------------------------------------------------------------------#
 Sun, 8 Aug 1993 17:13:08 -0700
Date: Sun, 8 Aug 1993 17:13:08 -0700
From: Sekhar Narayanaswami 
Message-Id: 
To: jamesb@animal-farm.nevada.edu
Subject: CRD (and some tab): 29 Palms (Robert Plant)


Here's 29 Palms, the latest by Robert Plant (or at least
as much of it as I could figure out).

29 PALMS - Robert Plant
-----------------------

The signature riff played throughout the verse:

E ----------------|
B ----------------|
G ----------------|
D -----2---0h2----|
A -0h2---2--------|
E ----------------|
   ^ . ^ . ^ . ^ . 

It's played in each bar over the verse...  what I do for the verse
is usually play the riff and then play the appropriate chord for the
rest of the bar... (the riff starts at the place where  I've listed the
chord)...

          
Solo: (or at least as much as I could get) ( over chords of chorus)

[ Tab from: http://www.guitartabs.cc/tabs/p/plant_robert/29_palms_solo_tab.html ]
E -----7---------------|----------------|
B -------10p8----10----|----------------|
G ------------11----7-4h5---4h5---4h5-7-|
D ---------------------|----------------|
A ---------------------|----------------|
E ---------------------|----------------|
  ^ .  ^ .    ^  .  ^ . ^ . ^ . ^ . ^ .  


E -----7---------------|----------------|
B -------10p8----10----|----------------|
G ------------11----7-4p2-----2h4-2-0h2-|
D ---------------------|----------------|
A ---------------------|----------------|
E ---------------------|----------------|
  ^ .  ^ .    ^  .  ^ . ^ . ^ . ^ . ^ .  


E -----7---------------|----------------|
B -------10p8----10----|----------------|
G 0-----------11----7-4h5---4h5---4h5-7-|
D ---------------------|----------------|
A ---------------------|----------------|
E ---------------------|----------------|
  ^ .  ^ .    ^  .  ^ . ^ . ^ . ^ . ^ .  

(1 bar of background)

Chorus:

repeat the G-D-G-C-G-D-Em-C pattern, and repeat the solo also, 
and fade...

Chords:
Em:022000
D:xx0232
C:x32010
G:320003



Sekhar
-----------------------------------------------------------------
Sekhar Narayanaswami                        rsn@cory.berkeley.edu

"I wanna find myself a girl
Who can show me what laughter means
And we'll fill in the missing colors
In each other's paint-by-number dreams"-- Jackson Browne
Comments