Plankeye - Whisper To Me Chords & Tabs

 

Whisper To Me Chords & Tabs

Plankeye Chords & Tabs

Version: 1 Type: Bass Tab 0 ratings
1 star 2 stars 3 stars 4 stars 5 stars
comments

Whisper To Me Bass Tab

#-----------------------------------------------------------------------------#
#-- File created with Instab - http://www.pconline.com/~smcarey/instab.html --#
#-----------------------------------------------------------------------------#

Author/Artist: Plankeye
Title: Whisper To Me
Album: Commonwealth
Transcribed by: Jed
Email: dbj@bearkan.com


This is the bass tab, ignore the top 2 strings
Visit my webpage at http://members.tripod.com/~CokeMan007/index.html


-------------------|----------------------------------------------------------
-------------------|----------------------------------------------------------
-------------------|----------------------------------------------------------
-------------------|-8x-------------------------------------------------------
-----7-7--------5h7|----------------------------------------------------------
-0-0-----0-0-/7----|----------------------------------------------------------
 Intro(above)/Verse(below)                                                    


-----------------|-----------------|------------------------------------------
-----------------|-----------------|------------------------------------------
-----------------|-----------------|------------------------------------------
-----------------|-----------------|-2x---------------------------------------
-----------------|-----------------|------------------------------------------
-0-0-0-0-0-0-0-0-|-0-0-0-0-0-0-0-0-|------------------------------------------
 Verse2(below)                                                                


-----------------|-----------------|------------------------------------------
-----------------|-----------------|------------------------------------------
-----------------|-----------------|------------------------------------------
-----------------|-----------------|-4x---------------------------------------
-0-0-0-0-4-4-4-4-|-----------------|------------------------------------------
-----------------|-0-0-0-0-0-0-0-0-|------------------------------------------
 Chorus(below)                                                                

[ Tab from: http://www.guitartabs.cc/tabs/p/plankeye/whisper_to_me_btab.html ]
-----------------|-----------------|-----------------|------------------------
-----------------|-----------------|-----------------|------------------------
-----------------|-----------------|-----------------|------------------------
-----------------|-----------------|-----------------|------------------------
-2-2-2-2-2-2-2-2-|-5-5-5-5-5-5-5-5-|-0-0-0-0-0-0-0-0-|------------------------
-----------------|-----------------|-----------------|------------------------
 Intro(4x)/Verse/Verse3(below)                                                


-----------------|-----------------|-----|-----------------|------------------
-----------------|-----------------|-----|-----------------|------------------
-----------------|-----------------|-----|-----------------|------------------
-----------------|-----------------|-4x--|-----------------|------------------
-0-0-0-0-4-4-4-4-|-----------------|-----|-----------------|------------------
-----------------|-0-0-0-0-0-0-0-0-|-----|-0-0-0-0-0-0-0-0-|------------------
 Chorus2(below)                                                               


-----------------|-----------------|-----------------|-----------------|------
-----------------|-----------------|-----------------|-----------------|------
-----------------|-----------------|-----------------|-----------------|------
-----------------|-----------------|-----------------|-----------------|------
-2-2-2-2-2-2-2-2-|-5-5-5-5-5-5-5-5-|-0-0-0-0-0-0-0-0-|-----------------|------
-----------------|-----------------|-----------------|-3-3-3-3-3-3-3-3-|------
                                                                              


-----------------|-----------------|-----------------|------------------------
-----------------|-----------------|-----------------|------------------------
-----------------|-----------------|-----------------|------------------------
-----------------|-----------------|-----------------|------------------------
-2-2-2-2-2-2-2-2-|-5-5-5-5-5-5-5-5-|-0-0-0-0-0-0-0-0-|------------------------
-----------------|-----------------|-----------------|------------------------
 Intro(12x)/Play first 6 bars of Chorus2, then..                              


-----------------|------------------------------------------------------------
-----------------|------------------------------------------------------------
-----------------|------------------------------------------------------------
-----------------|------------------------------------------------------------
-0-0-00----------|------------------------------------------------------------
-----------------|------------------------------------------------------------

Comments