Plankeye - Tonight Chords & Tabs

 

Tonight Chords & Tabs

Plankeye Chords & Tabs

Version: 2 Type: Bass Tab 0 ratings
1 star 2 stars 3 stars 4 stars 5 stars
comments

Tonight Bass Tab

Author/Artist: Plankeye
Title: Tonight
Album: The Spark
Transcribed by: Jed
Email: CokeMan007@aol.com
My e-mail will change soon, so check the website to find the new one if my AOL one doesn't work.
-----------------|-------------|--4x------------------------------------------
-----------------|-------------|----------------------------------------------
-0-2-2-2-2-------|-------------|----------------------------------------------
-------------2-1-|-0---0-0---0-|----------------------------------------------
 Intro 1(above),Intro 2 (below) Verse is same as Intro 2                      
----------------|--------------|--4x----8x------------------------------------
----------------|------------0-|----------------------------------------------
-0-2---0-2---0--|--------0-0---|----------------------------------------------
---------------2|--------------|----------------------------------------------
 Chorus                                                                       
---------------|---------------|-------------|-------------|------------------
---------------|---------------|-------------|-------------|---3x-------------
-7------------5|---------------|-2----------4|------------5|------------------
---------------|---------------|-------------|-------------|------------------
                                                                              
---------------|---------------|--------------|-------------|-----------------
---------------|---------------|--------------|-----------0-|--1x-------------
-7------------5|---------------|-0-2--0-2--0--|-------0-0---|-----------------
---------------|---------------|-------------2|-------------|-----------------
 Repeat Intro 2/Repeat Verse/Repeat Chorus/Middle Section(below)              
----------------|--------------|----------------------------------------------
----------------|--------------|--8x------------------------------------------
-0-2-2-2-2------|--------------|----------------------------------------------
-------------2-1|--0---0-0---0-|----------------------------------------------
                                                                              
--------------|-------------|-------------------------------------------------
--------------|-------------|--4x---------------------------------------------
-5-7-7--7--5-7|----7---7---7|-------------------------------------------------
--------------|-------------|-------------------------------------------------
 Repeat Chorus/Repeat Intro 2/Outro(below)                                    
--------------|--------------|--4x--------------------------------------------
--------------|--------------|------------------------------------------------
-2----------4-|--------------|------------------------------------------------
--------------|--------------|------------------------------------------------
 Enjoy! Visit my site at http://members.tripod.com/~CokeMan007/index.html     

[ Tab from: http://www.guitartabs.cc/tabs/p/plankeye/tonight_btab_ver_2.html ]
Comments