Plankeye - Struck By The Chord Chords & Tabs

 

Struck By The Chord Chords & Tabs

Plankeye Chords & Tabs

Version: 1 Type: Tab 0 ratings
1 star 2 stars 3 stars 4 stars 5 stars
comments

Struck By The Chord Tab

#-----------------------------------------------------------------------------#
#-- File created with Instab - http://www.pconline.com/~smcarey/instab.html --#
#-----------------------------------------------------------------------------#

Author/Artist: Plankeye
Title: Struck By The Chord
Album: Commonwealth
Transcribed by: Jed
Email: dbj@bearkan.com


This is the bass tab. kI'm pretty sure it is right, enjoy!
Visit my webpage at http://members.tripod.com/~CokeMan007/index.html, thanks!


-----------------|-----------------|------------------------------------------|
-----------------|-----------------|------------------------------------------|
-----------------|-----------------|-3x---------------------------------------|
-----------------|-----------------|------------------------------------------|
-7-7-7-7-5-5-5-3-|-3-3-3-3-5-5-5-5-|------------------------------------------|
-----------------|-----------------|------------------------------------------|
 Intro(above)/Verse(below)


-----------------|-----------------|------------------|-------------|---------|
-----------------|-----------------|------------------|-------------|---------|
-----------------|-----------------|------------------|-------------|---------|
-----------------|-----------------|------------------|-------------|---------|
-7---------------|----------------7|7-----------------|------------7|7--------|
-----------------|-----------------|------------------|-------------|---------|
[ Tab from: http://www.guitartabs.cc/tabs/p/plankeye/struck_by_the_chord_tab.html ]
---------|------|-------|------|------|------|--------------------------------|
---------|------|-------|------|------|------|--------------------------------|
---------|------|-------|------|------|------|--------------------------------|
---------|------|-------|------|------|------|--1x----------------------------|
---------|------|-------|------|------|------|--------------------------------|
---------|------|-------|------|------|------|--------------------------------|
 Verse2(below)/Intro(4x)/Verse(omit last 2 bars)/Verse


---------------------------------|--------------------------------------------|
---------------------------------|--------------------------------------------|
-----12/--------7-------5---4----|--------------------------------------------|
------------4-5---------------5-4|-4x-----------------------------------------|
-7--------7----------------------|--------------------------------------------|
---------------------------------|--------------------------------------------|
 Chorus(below)/10 bars no bass/Verse2/Chorus/Intro(12x)


-----------------|-----------------|------------------------------------------|
-----------------|-----------------|------------------------------------------|
-----------------|-----------------|------------------------------------------|
-----------------|-----------------|--4x--------------------------------------|
-----------------|-----------------|------------------------------------------|
-0-0-0-0-2-2-2-3-|-3-3-3-3-5-5-5-5-|------------------------------------------|
 Melody(below)(cool part)


---------------------|-----------------------|--------------------|-----------|
---------------------|-----------------------|--------------------|-----------|
-----12-11-----------|------------11-12-11---|----12-11-----------|-----------|
-----------14-12-----|---------12----------12|----------14-12-----|-----------|
-------------------12|-14-14-----------------|------------------12|-14-14-----|
-0-0-----------------|-----------------------|0-0-----------------|-----------|

-------------|----------------------------------------------------------------|
-------------|----------------------------------------------------------------|
-------------|----------------------------------------------------------------|
-------------|----------------------------------------------------------------|
-10-12-12---9|----------------------------------------------------------------|
-------------|----------------------------------------------------------------|
Comments