Plankeye - Revolution Chords & Tabs

 

Revolution Chords & Tabs

Plankeye Chords & Tabs

Version: 1 Type: Bass Tab 0 ratings
1 star 2 stars 3 stars 4 stars 5 stars
comments

Revolution Bass Tab

"Revolution"
Plankeye
Spill
Lyrics: Scott Silleta
Music: Plankeye
(c) 1994 Tooth & Nail Records
Tabbed By: Johnny Lloyd (StarFlyr99@aol.com)


  There are only two parts to this song so it's pretty
  easy to play.

[ Tab from: http://www.guitartabs.cc/tabs/p/plankeye/revolution_btab.html ]
-- Verse --
    s p s ss p s ss p s ss p s s p  s ss p  s s s s p s p
G-|-------------------------------------------------------|
D-|---7------7------7------7-----10------10---------5---5-|
A-|-------------------------------------------------------|
E-|-5---5-55---5-55---5-55---7-8----8-88----5-3-3-3---3---|


-- Chorus --
G-|------------------------|
D-|-------8--8--5--5--5--5-|
A-|-5--5-------------------|
E-|------------------------|
Comments