Plankeye - Playground Chords & Tabs

 

Playground Chords & Tabs

Plankeye Chords & Tabs

Version: 1 Type: Bass Tab 0 ratings
1 star 2 stars 3 stars 4 stars 5 stars
comments

Playground Bass Tab

   
"Playground"
 Plankeye
 Album: The One and Only
 Lyrics: Scott Silleta
 Music: Plankeye
 (c) 1997 Tooth & Nail
 Tabbed by: Johnny Lloyd (StarFlyr99@aol.com)
	Verse:
G-|--------------------|
D-|--------------------|
A-|--------------------|
E-|-3-3-33-3-3-1-1-111-|
	Prechorus:
G-|---------------------------|
D-|---------------------------|
A-|-5-5-5-5-5-5-5-5-5-5-5-5-5-|
E-|---------------------------|
	Chorus:
G-|-----------------------------------------------------------------|
D-|-----------------------------------------------------------------|
A-|-5-5-5-5-5-5-5-5-6-6-6-6-6-6-6-6-----------------8-8-8-8-8-8-8-8-|
E-|---------------------------------6-6-6-6-6-6-6-6-----------------|
  The Order:   Verse, Prechorus, Verse, Prechorus, Chorus, Verse, Chorus
  
  Send any comments or corrections: StarFlyr99@aol.com   


[ Tab from: http://www.guitartabs.cc/tabs/p/plankeye/playground_btab.html ]
Comments