Plankeye - Open Eyes Chords & Tabs

 

Open Eyes Chords & Tabs

Plankeye Chords & Tabs

Version: 2 Type: Bass Tab 0 ratings
1 star 2 stars 3 stars 4 stars 5 stars
comments

Open Eyes Bass Tab

"Open Eyes"
Plankeye
Spill
Lyrics: Scott Silleta
Music: Plankeye
(c) 1994 Tooth & Nail Records
Tabbed By: Johnny Lloyd (StarFlyr99@aol.com)


-- Intro --            
G-|---------------------4h5-7h9-|
D-|-----------------5h7---------|
A-|-5h7-5h7-5h7-5h7-------------|
E-|-----------------------------|


-- Verse --
G-|---------------------------------|
D-|---------------------------------|
A-|-5-5-5-5---------3-3-3-3---------|
E-|---------5-5-5-5---------3-3-3-3-|

[ Tab from: http://www.guitartabs.cc/tabs/p/plankeye/open_eyes_btab_ver_2.html ]
-- Chorus --                          
    s s sss s ss s ss s s p s p s ss ss   s s sss s ss s ss s s sss s ss ss
G-|-------------------------------------|-----------------------------------|
D-|*----------------------7---7--------*|*---------------------------------*|
A-|*-----------------------------------*|*---------------------------------*|
E-|-0-0-000-3-33-3-33-5-5---5---3-33-33-|-0-0-000-3-33-3-33-5-5-555-3-33-33-|


-- Bridge --
G-|--------------------------------|
D-|--------------------------------|
A-|--------------------------------|
E-|-0-----3-----22-0-----5---33-22-|
Comments