Plankeye - Good News Chords & Tabs

 

Good News Chords & Tabs

Plankeye Chords & Tabs

Version: 1 Type: Bass Tab 0 ratings
1 star 2 stars 3 stars 4 stars 5 stars
comments

Good News Bass Tab

   
"Good News"
Plankeye
Spill
Lyrics: Scott Silleta
Music: Plankeye
(c) 1994 Tooth & Nail Records
Tabbed By: Johnny Lloyd


-- Intro and Prechorus --
G-|-----------|
D-|-----------|
A-|-----------|
E-|-5-5-3-3-3-|


-- Verse Riff One --
G-|---------------------|
D-|---------------------|
A-|---------------------|
E-|-5-5-5-0-0-0-0-3-3-3-|


-- Verse Riff Two --
G-|------------------------------|
D-|----7-5-----------------------|
A-|---------7-5-4--2-22-5--7-5-4-|
E-|-5----------------------------|

[ Tab from: http://www.guitartabs.cc/tabs/p/plankeye/good_news_btab.html ]
-- Chorus --                  3x
G-|-----------------------------|-------------------------------|
D-|*---------------------------*|---------------5-5-5-5-5-5-5-5-|  
A-|*----------------------2-3-5*|-------------------------------|
E-|-5--5-5--5-5-5-3--3-3--------|-5--5-5--5-5-5-----------------|


-- Bridge (needs help) --
    s  sp s s s s     s
G-|---------------------|
D-|-----7---------------|
A-|-------5-------------|
E-|-5--5----7-5-0h2h3-0-|


-- Outro --
G-|-------------------------------|
D-|---------------------------5-7-|
A-|-----4-5--7-5-4-----4-5--7-----|
E-|-5-5------------5-5------------|
Comments