Plankeye - Free Me Chords & Tabs

 

Free Me Chords & Tabs

Plankeye Chords & Tabs

Version: 1 Type: Bass Tab 0 ratings
1 star 2 stars 3 stars 4 stars 5 stars
comments

Free Me Bass Tab

"Free Me"
Plankeye
Spill
Lyrics: Scott Silleta
Music: Plankeye
(c) 1994 Tooth & Nail Records
Tabbed By: Johnny Lloyd (StarFlyr99@aol.com)


-- Verse --
G-|---------------------------------|
D-|---------4-4-4-4-5-5-5-5---------|
A-|-2-2-2-2-----------------5-5-5-5-|
E-|---------------------------------|

[ Tab from: http://www.guitartabs.cc/tabs/p/plankeye/free_me_btab.html ]
-- Chorus One --             s p s p                           s p s p
G-|-----------------------------7---7-----------------------------7---7-|
D-|---------------------------------------------------------------------|
A-|-2-2-5/7-2---x---2-2-5/7-2-5---5---2-2-5/7-2---x---2-2-5/7-2-5---5---|
E-|---------------------------------------------------------------------|
                Free                              Me


-- Chorus Two --
G-|------------------------|
D-|------------------------|
A-|-2--2--0--0-------------|
E-|-------------3--3--3--3-|


-- Interlude --
G-|---------------------------------|
D-|---------------------------------| This is the part where the guitars  
A-|---------2-2-2-2-3-3-3-3---------| are heavily muted and distorted.
E-|-0-0-0-0-----------------3-3-3-3-| 


Comments