Plankeye - Bicycle Chords & Tabs

 

Bicycle Chords & Tabs

Plankeye Chords & Tabs

Version: 2 Type: Bass Tab 0 ratings
1 star 2 stars 3 stars 4 stars 5 stars
comments

Bicycle Bass Tab

"Bicycle"
 Plankeye
 Album: Commonwealth
 Words & Music: Plankeye
 (c) 1996 (We Own Your Songs) a division of Tooth and Nail Record Co.
 Tabbed By: Johnny Lloyd (StarFlyr99@aol.com) 
[ Tab from: http://www.guitartabs.cc/tabs/p/plankeye/bicycle_btab_ver_2.html ]
  Verse:                      
G-|--------------------------------|
D-|-----5--4-----------------------|
A-|------------7-------------------|
E-|---5------------5--(let ring)---|
  Prechorus:         
G-|--------------------|
D-|--------------------|
A-|-------5-------5\7--|
E-|---3-------3--------|
  Chorus:
G-|------------------------------|
D-|------------------------------|
A-|---5--------------5------5----| 
E-|----------3-----5----------5--|
   There is a Run after the 2nd time the
   verse riff is played in the 2nd and 3rd verses:
2nd Verse:           3rd Verse:
G-|----------|       G-|------------------|
D-|--7\9\11--|       D-|-----11 12 11\14--|
A-|----------|       A-|--0---------------|
E-|----------|       E-|------------------|
	
 Ok, this is the outline of the Song:
           Verse - 3x
           Prechorus - 1x
           Verse - 2x
           2nd Verse Run - 1x
           Verse - 1x
           Prechorus - 2x
           Chorus - 3x
           Verse - 2x
           3rd Verse Run - 1x
           Verse - 1x
           Prechorus - 1x
           Verse - 3x
           Prechorus - 2x
           Chorus - until the song ends
	I'm pretty sure that's the way it goes.
        I'm unable to listen to the song right now,
        but if this isn't it, it's really close.
		
		

Comments