Planetshakers - Majesty Chords & Tabs

 

Majesty Chords & Tabs

Planetshakers Chords & Tabs

Version: 1 Type: Tab

Majesty Tab

Artist: Planet Shakers
Title: Majesty 
Album: Arise
Tabbed by: Will

Hey guys, this is a great new song off the new Planet Shakers album.
I'm confident that this tab is 100%.
Send your comments or corrections to whatwillpeoplethink_90@hotmail.com


Intro pt.1     X3
E|---7---7--9---| 
A|-----7--------|
D|--------------|
g|--------------|
b|--------------|
e|--------------|


Intro pt.2                                   X3
E|---7---7--9---9-11--12-11-9--12-11-9--------|---7---7--9---12--11---|
A|-----7--------------------------------------|-----7-----------------|
D|--------------------------------------------|-----------------------|
g|--------------------------------------------|-----------------------|
b|--------------------------------------------|-----------------------|
e|--------------------------------------------|-----------------------|

[ Tab from: http://www.guitartabs.cc/tabs/p/planetshakers/majesty_tab.html ]
Verse           
 "rising...     Repeat
E|---12--11---------|
A|------------------|
D|------------------|
g|------------------|
b|------------------|
e|------------------|


Pre-Chorus
 "every...                                           Let Ring
E|---7--6----7----12-11--9-11----7--6-----7---12--11---9---| 
A|--------7----7----------------------7--------------------|
D|---------------------------------------------------------|
g|---------------------------------------------------------|
b|---------------------------------------------------------|
e|---------------------------------------------------------|


Chorus
 "all majesty...                             X3
E|---7---7--9---9-11--12-11-9--12-11-9--------|---7---7--9---12--11---|
A|-----7--------------------------------------|-----7-----------------|
D|--------------------------------------------|-----------------------|
g|--------------------------------------------|-----------------------|
b|--------------------------------------------|-----------------------|
e|--------------------------------------------|-----------------------|


God Bless and Good Luck with the song.
Any corrections? please send to whatwillpeoplethink_90@hotmail.com