Planet Smashers - Uncle Gordie Chords & Tabs

 

Uncle Gordie Chords & Tabs

Planet Smashers Chords & Tabs

Version: 1 Type: Chords 0 ratings
1 star 2 stars 3 stars 4 stars 5 stars
comments

Uncle Gordie Chords

   
-------------------------------------------------------------------------------
                    Uncle Gordie - Planet Smashers
-------------------------------------------------------------------------------
Tabbed by: Andy Heidt
Email: andythecripple@hotmail.com

Tuning: standard

Intro                     
|-3---0---3---2---|
|-3---0---1---3---|
|-0---0---0---2---|
|-0---2---2---0---|
|-2---2---3---0---|
|-3---0---0---x---|
  G   Em  C   D            

Verse
|-10--7---8---10--|
|-12--8---8---10--|
|-12--9---9---11--|
|-12--9---10--12--|
|-10--7---10--12--|
|-10--7---8---10--|
  G   Em  C   D   
[ Tab from: http://www.guitartabs.cc/tabs/p/planet_smashers/uncle_gordie_crd.html ]
Chorus
|-3---5---10--7---|
|-5---7---12--8---|
|-5---7---12--9---|
|-5---7---12--9---|
|-3---5---10--7---|
|-3---5---10--7---|
  C   D   G   Em   

Post Chorus
|-8---10---|
|-8---10---|
|-9---11---|
|-10--12---|
|-10--12---|
|-8---10---|
  C   D  

Intro Riff (hard to hear all of it)
|(3)-----(0)-----------(3)(2)-3-2-0-|
|(3)-----(0)-----------(3)(3)-------|
|(0)-----(0)-----------(0)(2)-------|
|--------------------------0--------|
|-----------------3-3-2-3-----------|
|-3-2-3-2-0---0---------------------|
  G       Em      C        D  

Happy Little Riff partway through 2nd verse
|----------------------------|
|-----------------15-13-12---|
|--------------------------12|
|----------------------------|
|----------------------------|
|----------------------------|
  G   Em  C   D   
Comments