Planet Smashers - Romeo Chords & Tabs

 

Romeo Chords & Tabs

Planet Smashers Chords & Tabs

Version: 1 Type: Bass Tab 0 ratings
1 star 2 stars 3 stars 4 stars 5 stars
comments

Romeo Bass Tab

   
Song:Romeo
Band:The Planet Smashers 
Album: Attack of the Planet Smashers 
By:BassD 

h=hammer-on 
\=slide up /=slide down 
r or ring=let the note sound 

Intro 
G|--------------------------------------------------------------| 
D|--------------------------------------------------------------| 
A|--------------------------------------------------------------| 
E|-1--1-1-1-1-1-1-0--0-0-0-0-0-0-3--3-3-3-3-3-3-1--1-1-1-1-1-1--| 

G|----------------------------------------------------------------| 
D|----------------------------------------------------------------| 
A|----------------------------------------------------------------| 
E|-/6--6-6-6-6-6-6-5--5-5-5-5-5-5-/8--8-8-8-8-8-8-6--6-6-6-6-6-6--| 

Pre-Verse (00:11) 
G|(x8)-----------------| 
D|----2h3-2------------| 
A|-----------5--3-2----| 
E|-5----------------3--| 

(Intro) (00:33) 
[ Tab from: http://www.guitartabs.cc/tabs/p/planet_smashers/romeo_btab.html ]
Verse (00:44-00:45) 
G|(x4)-----------------| 
D|----2h3-2------------| 
A|-----------5--3-2----| 
E|-5----------------3--| 

(Intro) (00:56) 
(Pre-Verse) (01:07) 
(Intro) (01:29-01:30) 
Bridge = (Pre-Verse) (01:40-01:41) 

Verse (02:03) 
G|(x3)-----------------|(x1)------------------| 
D|----2h3-2------------|----2h3-2-----5-------| 
A|-----------5--3-2----|-----------5----5\----| 
E|-5----------------3--|-5----------------3---| 

Outro = Intro (02:14) 
G|--------------------------------------------------------------| 
D|--------------------------------------------------------------| 
A|--------------------------------------------------------------| 
E|-1--1-1-1-1-1-1-0--0-0-0-0-0-0-3--3-3-3-3-3-3-1--1-1-1-1-1-1--| 

G|--------------------------------------------------------------------| 
D|--------------------------------------------------------------------| 
A|--------------------------------------------------------------------| 
E|-/6--6-6-6-6-6-6-5--5-5-5-5-5-5-/8--8-8-8-8-8-8-6--6--6--6--6--6--5r| 
End 

Fun to play!!! 
rancid_ska@hotmail.com
Comments