Plain White Ts - What If Chords & Tabs

 

What If Chords & Tabs

Plain White Ts Chords & Tabs

Version: 1 Type: Tab 0 ratings
1 star 2 stars 3 stars 4 stars 5 stars
comments

What If Tab

----------------------------------------------------------------------------
			     What If - Plain White T's
----------------------------------------------------------------------------
Tabbed by: brentman
Email: old_english@comcast.net

Tuning: Standard 

This isn't the song in it's entirety, but I got the general idea of the song. I'll work
on figuring everything else out soon. For now, listen to the song to see how everything
works.

Verse
e|-------------------------------------------------------------------------|
B|-------------------------------------------------------------------------|
G|---5-------8-------------------------------------------------------------|
D|---5---6---8---8---------------------------------------------------------|
A|---3---6---6---8---------------------------------------------------------|
E|-------4-------6---------------------------------------------------------|
[ Tab from: http://www.guitartabs.cc/tabs/p/plain_white_ts/what_if_tab.html ]
Pre-Chorus
e|-------------------------------------------------------------------------|
B|-------------------------------------------------------------------------|
G|-------------------------------------------------------------------------|
D|---6---6---10---3---5----------------------------------------------------|
A|---6---6---10---3---5----------------------------------------------------|
E|---4---8----8---1---3----------------------------------------------------|

Chorus
e|-------------------------------------------------------------------------|
B|-------------------------------------------------------------------------|
G|-------8-----------------------------------------------------------------|
D|---6---8---8---10--------------------------------------------------------|
A|---6---6---8---10--------------------------------------------------------|
E|---4-------6---8---------------------------------------------------------|
Comments