Plain White Ts - Shine Chords & Tabs

 

Shine Chords & Tabs

Plain White Ts Chords & Tabs

Version: 1 Type: Tab 0 ratings
1 star 2 stars 3 stars 4 stars 5 stars
comments

Shine Tab

   
Shine by Plain White T's (dedicated to winter quarter)
--sounds best on acoustic--

Tabbed by: rorobynbyn
Email:rllee@ucdavis.edu 

this is my first tab, so it's rough... send me some advice and tips please!!!

Tuning: standard

INTRO:
e|----------------------------------------------------------------------------------------|
B|------0------------0------------0-----------0----------0--------------0---------0----0--|
G|------4/55-5-------4/55-5-------4/55-5------4/55-5-----4/55-5-------4/55-5----0-4/55-4--|
D|-----------------------------------------------------3------------3---------------------|
A|---3------------3-------------0-----------0---------------------------------------------|
E|----------------------------------------------------------------------------------------|

e|----------------------------------------------------------------|
B|----------------------------------------------------------------|
G|---999/777/555/4444/2-0h2-2-------999/777/555/2222\44-----------|
D|----------------------------------------------------------------|
A|----------------------------------------------------------------|
E|----------------------------------------------------------------|



VERSE:
e|----------------------------------------------------------------------------------------|
B|------0------------0------------0-----------0----------0--------------0---------0----0--|
G|------4/55-5-------4/55-5-------4/55-5------4/55-5-----4/55-5-------4/55-5----0-4/55-4--|
D|-----------------------------------------------------3------------3---------------------|
A|---3------------3-------------0-----------0---------------------------------------------|
E|----------------------------------------------------------------------------------------|
(repeat 3 times for verse 1&2)
(repeat 2 times for verse 3)

Verse 1:                                  
you know it tears me up inside            
to see the feelings that you hide    
hide inside that empty bottle

i wish you saw how great you were 
i wish you saw what life was worth
you wouldn't have to hide your problems

Pre-Chorus:
and i don't care what you might think
i think you've had too much to drink
can't even talk when you're this way....

[ Tab from: http://www.guitartabs.cc/tabs/p/plain_white_ts/shine_tab.html ]
guitar 1:    (guitar 2:no idea..some bunch of chords that i'll try to figure out later)
e|---------------------------------------------------------------------------|
B|---------------------------------------------------------------------------|
G|---999/777/555/4444/2-0h2-2-------999/777/555/2222\44----------------------|
D|---------------------------------------------------------------------------|
A|---------------------------------------------------------------------------|
E|---------------------------------------------------------------------------|
(repeat 2 times (?) throughout chorus)

Chorus:
run away, run away
but that won't make it any better
run away, run away
and make tomorrow harder to live than today

Verse 2:
there's so much out there you could miss
there's so much life out there to live
if you could just believe in yourself

you know you're better than all of this
you know you've got so much to give
but you're so afraid to give of yourself

Pre-Chorus:
and i don't care what you might think
i think you've had too much to drink
can't even talk when you're this way....

Chorus:
run away, run away
but that won't make it any better
run away, run away
and make tomorrow harder to live than today


BRIDGE:
    Am                G            Am
e|-5-5---5-----------3-3---3------5-5---5-------|
B|-7-7---7-----------5-5---5------7-7---7-------|
G|-7-7---7--- x2 ----5-5---5------7-7---7-------|
D|-5-5---5-----------4-4---4------5-5---5-------|
A|-5-5---5-----------3-3---3------5-5---5-------|
E|-5-5---5-----------3-3---3------5-5---5-------|
(repeat 2 times throughout bridge but extend Am after "shine")

Bridge:
there's a bright light shining inside you
shines out through your eyes
don't throw it away, don't be afraid, don't hide
let it shine

Verse 3:
you say you're looking for happiness
but when it comes, you run away from it
you tell yourself you don't deserve it

there's not much more that i can do
now the rest is up to you
until you love yourself
you'll never change

Chorus:
run away, run away
but that won't make it any better
run away, run away
and make tomorrow harder to live than today

run away, run away
but that won't make it any better
run away, run away
you'll keep on running until you deal with today

OUTRO:                                                           C
e|---------------------------------------------------------------0-|
B|------0------------0------------0-----------0----------000000--1-|
G|------4/55-5-------4/55-5-------4/55-5------4/55-5-----444444--0-|
D|-----------------------------------------------------3---------2-|
A|---3------------3-------------0-----------0--------------------3-|
E|---------------------------------------------------------------0-|
Comments