Plain White Ts - Radios In Heaven Chords & Tabs

 

Radios In Heaven Chords & Tabs

Plain White Ts Chords & Tabs

Version: 1 Type: Bass Tab 0 ratings
1 star 2 stars 3 stars 4 stars 5 stars
comments

Radios In Heaven Bass Tab

Don't start playing until 1:28
Tune A string a  step down to Ab

G----------------------------------------------------------------------------|
D----------------------------------------------------------------------------|
Ab-----------1-----------1-----------1------------1------------1-------------|
E-----6---5-----6---5--------6---5-------6---5-------6---5-------6---|  1:56-|

G----------------------------|
D----------------------------|
Ab---------------------------|
E----5---5---5---5---5-------|

G---------------------------------------------------|
D---------------------------------------------------|
Ab--------------------------------------------------|
E---6---5---6---1-----|  Repeat this 15x until 2:55-|
[ Tab from: http://www.guitartabs.cc/tabs/p/plain_white_ts/radios_in_heaven_btab.html ]
G---------------------------------------------------------------------|
D--------------1------------1-------------1------------1--------------|
Ab---6---5-------6---5---------6---5--------6---5---------------------|
E------------------------------------------------------------|   3:16-|

G---------------------------------------------------------------------|
D---------------------------------------------------------------------|
Ab--------------------------------------------------------------------|
E---5---5---5---5---5---5---5---5---5---5---5---5---5---5-------------|

3:38
G--------------------------------------------------|
D--------------------------------------------------|
Ab---6---5---6---1---6---5---6---1---6-------------|
E--------------------------------------------------|

3:55
G--------------------------|
D--------------------------|
Ab----------1--------------|
E---5---6----------| 5:12--| Repeat until song is over
Comments