Plain White Ts - Penny Chords & Tabs

 

Penny Chords & Tabs

Plain White Ts Chords & Tabs

Version: 1 Type: Tab

Penny Tab

Really easy song...
Chorus...
--------------------------|
--------------------------|
----5---------------------|
7-3-5-5-------------------|
7-3-3-5-------------------|
5-1---3-------------------|

[ Tab from: http://www.guitartabs.cc/tabs/p/plain_white_ts/penny_tab.html ]
Verse...
--------------------------|
--------------------------|
--5-----------------------|
7-5-5-3-------------------|
7-3-5-3-------------------|
5---3-1-------------------|


Bridge...
--------------------------|
--------------------------|
--------------------------|
3-5-7---------------------|
3-5-7---------------------|
1-3-5---------------------|


Just listen to the song and you'll have this down in minutes.