Plain White Ts - Bruises Chords & Tabs

 

Bruises Chords & Tabs

Plain White Ts Chords & Tabs

Version: 1 Type: Bass Tab

Bruises Bass Tab

Plain White T's - Bruises

h=Hammer On
p=Pull off
Notes are elevens, not ones.
Playing order is down the bottom.

Intro
G|------------------------------------|
D|------------------------------------|
A|---------------11-9-----------99h11-|
E|-5-77-99-11-11--------5-77-99-------|

Verse
G|------------------------------------|
D|------------------------------------|
A|---------11-9-----------------------|
E|-5-77-99------11-9---5-77-99--7--5--|

G|------------------------------------|
D|------------------------------------|
A|----------------------11-9----------|
E|-5-77-99-0-3--5-77-99------11-9-----|

Fill One
G|------------------------------------|
D|------------------------------------|
A|--------------11-9------------------|
E|-5-77-9-77-99-----------------------|

Fill Two
G|------------------------------------|
D|------------------------------------|
A|------------------------------------|
E|-5-77-9h11--------------------------|

Chorus
G|------------------------------------|
D|------------------------------------|
A|-------------9-11-------------------|
E|-11-11-11-11-------7777777----------|x2
[ Tab from: http://www.guitartabs.cc/tabs/p/plain_white_ts/bruises_btab.html ]
G|------------------------------------|
D|------------------------------------|
A|------------------------------------|
E|-11-11-11-11-11-99999-7-------------|

Fill Three
G|------------------------------------|
D|------------------------------------|
A|----11-9----------------------------|
E|-99---------------------------------|

Bridge
G|------------------------------------|
D|------------------------------------|
A|----------------11-9----------------|
E|-5555-7777-9999------11-9-----------|

Guitar Solo
G|------------------------------------|
D|------------------------------------|
A|-11-11-11-999-----------------------|
E|--------------99999p7---------------|

Fill Four
G|------------------------------------|
D|------------------------------------|
A|---------11-9-----------------------|
E|-5-77-99------11-9------------------|

Outro
G|------------------------------------|
D|------------------------------------|
A|------------------------------------|
E|-5-77-99----------------------------|

Playing Order:

Intro x1
Verse x1
Fill One x1
Verse x1
Fill Two x1
Chorus x1
Fill Three x 1
Verse x1
Fill Two x1
Chorus x2
Intro x1
Verse x1
Bridge x3
Guitar Solo x3
Verse x1
Fill Four x2
Fill Two x1
Chorus x2
Bridge x3
Outro x1