Plain White Ts - Anything Chords & Tabs

 

Anything Chords & Tabs

Plain White Ts Chords & Tabs

Version: 1 Type: Bass Tab

Anything Bass Tab

PLain White T's
Anything

() = First time Only
>  = Play note eight times

Verse One
G|-------------------|
D|-------------------|
A|-(10/)--333---55---|x9
E|-----------333--0>-|

G|-------------------|
D|-------------------|
A|-------------------|x1
E|-0>----------------|

Chorus one
G|-------------------|
D|-------------------|
A|-3>>-5>>-----------|x1
E|---------3>>-0>----|

G|-------------------|
D|-------------------|
A|---333---55--------|x1
E|------333----0>----|

Verse two
G|-------------------|
D|-------------------|
A|---333---55--------|x8
E|------333----0>----|

G|-------------------|
D|-------------------|
A|-------------------|x1
E|-0>----------------|
[ Tab from: http://www.guitartabs.cc/tabs/p/plain_white_ts/anything_btab.html ]
Chorus Two
G|-------------------|
D|-------------------|
A|-3>>-5>>-----------|x2
E|---------3>>-0>>---|

Bridge/Verse three
G|-------------------|
D|-------------------|
A|---333---55--------|x3
E|------333----0>----|

G|-------------------|
D|-------------------|
A|-3>>-5>>-----------|x1
E|-------------------|

Chorus three
G|-------------------|
D|-------------------|
A|-3>>-5>>-----------|x1
E|---------3>>-0>>---|

G|-------------------|
D|-------------------|
A|-3>>-5>>-----------|x1
E|---------3>>-0>----|


G|-------------------|
D|-------------------|
A|---333---55--------|x1
E|------333----0>----|

End

G|-------------------|
D|-------------------|
A|---333---55--------|x3
E|------333----0>----|


G|-------------------|
D|-------------------|
A|---333---5---------|x1
E|------333----------|