Plain White Ts - A Lonely September Chords & Tabs

 

A Lonely September Chords & Tabs

Plain White Ts Chords & Tabs

Version: 4 Type: Tab 0 ratings
1 star 2 stars 3 stars 4 stars 5 stars
comments

A Lonely September Tab

e--0---: -
B--2---:  \
G--2---:   |Stroke Up Once
D--2---:   |Then Let Ring
A--0---:  /
E--0---: -

e------------2------0------0-----------------2------0------0------:
B------------3------2------0-----------------3------2------0------:
G------------2------2------1-----------------2------2------1------:
D-----4------0------2------2----------4------0------2------2------:
A-----4-------------0------2----------4-------------0------2------:
E-00-02--------------------0------00-02--------------------0------:

e------------2------0------0-----------------2------0------0------:
B------------3------2------0-----------------3------2------0------:
G------------2------2------1-----------------2------2------1------:
D-----4------0------2------2----------4------0------2------2------:
A-----4-------------0------2----------4-------------0------2------:
E-00-02--------------------0------00-02--------------------0------:

e-2------0------0------0-------2------0------0------0------:
B-3------0------2------2-------3------0------2------2------:
G-2------1------2------2-------2------1------2------2------:
D-0------2------2------2-------0------2------2------2------:
A--------2------0------0--------------2------0------0------:
E--------0----------------------------0--------------------:

e-2------0-------------------2------0------0------0--------:
B-3------0-------------------3------0------2------2--------:
G-2------1-------------------2------1------2------2--------:
D-0------2------4------------0------2------2------2--------:
A--------2------4-------------------2------0------0--------:
E--------0------2-------------------0----------------------:

e------------2------0------0-----------------2------0------0------:
B------------3------2------0-----------------3------2------0------:
G------------2------2------1-----------------2------2------1------:
D-----4------0------2------2----------4------0------2------2------:
A-----4-------------0------2----------4-------------0------2------:
E-00-02--------------------0------00-02--------------------0------:

e------------2------0------0-----------------2------0------0------:
B------------3------2------0-----------------3------2------0------:
G------------2------2------1-----------------2------2------1------:
D-----4------0------2------2----------4------0------2------2------:
A-----4-------------0------2----------4-------------0------2------:
E-00-02--------------------0------00-02--------------------0------:

e-2------0------0------0-------2------0------0------0------:
B-3------0------2------2-------3------0------2------2------:
G-2------1------2------2-------2------1------2------2------:
D-0------2------2------2-------0------2------2------2------:
A--------2------0------0--------------2------0------0------:
E--------0----------------------------0--------------------:

e-2------0-------------------2------0------0------:
B-3------0-------------------3------0------2------:  
G-2------1-------------------2------1------2------:
D-0------2------4------------0------2------2------:
A--------2------4-------------------2------0------:
E--------0------2-------------------0-------------:

e-2------0-------------------2------0-------------:
B-3------0-------------------3------0-------------:  
G-2------1-------------------2------1-------------:
D-0------2------4------------0------2-------------:
A--------2------4-------------------2-------------:
E--------0------2-------------------0-------------:
 
Gtr. 1(clean acoustic gtr.) 

e--------2------0------0:
B--------3------2------0:
G--------2------2------1:
D-4------0------2------2:
A-4-------------0------2:
E-2--------------------0:

Gtr. 2(very slight distortion electric gtr.)

e-----------------------:
B-----------------------:
G----1-2----1-2----1-2--:
D--------0-------------2:
A---------------0-------:
E-2---------------------:
   Let each note ring
[ Tab from: http://www.guitartabs.cc/tabs/p/plain_white_ts/a_lonely_september_tab_ver_4.html ]
e-------------2------------------------------------2-----------------------:
B---------------3-------2----------------------------3-------2-------------:
G----------------2--------2------1--------------------2--------2------1----:
D-----4----0---------------2-------2-------4----0---------------2-------2--:
A-------4------------0--------------2--------4------------0--------------2-:
E-02---------------------------0-------02---------------------------0------:

e------------2------0------0-----------------2------0------0------:
B------------3------2------0-----------------3------2------0------:
G------------2------2------1-----------------2------2------1------:
D-----4------0------2------2----------4------0------2------2------:
A-----4-------------0------2----------4-------------0------2------:
E-00-02--------------------0------00-02--------------------0------:

e------------2------0------0-----------------2------0------0------:
B------------3------2------0-----------------3------2------0------:
G------------2------2------1-----------------2------2------1------:
D-----4------0------2------2----------4------0------2------2------:
A-----4-------------0------2----------4-------------0------2------:
E-00-02--------------------0------00-02--------------------0------:

e-2------0------0------0-------2------0------0------0------:
B-3------0------2------2-------3------0------2------2------:
G-2------1------2------2-------2------1------2------2------:
D-0------2------2------2-------0------2------2------2------:
A--------2------0------0--------------2------0------0------:
E--------0----------------------------0--------------------:

e-2------0-------------------2------0------0------0--------:
B-3------0-------------------3------0------2------2--------:
G-2------1-------------------2------1------2------2--------:
D-0------2------4------------0------2------2------2--------:
A--------2------4-------------------2------0------0--------:
E--------0------2-------------------0----------------------:

e-2------0-------------------2------0------0------:
B-3------0-------------------3------0------2------:  
G-2------1-------------------2------1------2------:
D-0------2------4------------0------2------2------:
A--------2------4-------------------2------0------:
E--------0------2-------------------0-------------:

Gtr.1

e-2------0------0------0-------2------0------0------0------:
B-3------0------2------2-------3------0------2------2------:
G-2------1------2------2-------2------1------2------2------:
D-0------2------2------2-------0------2------2------2------:
A--------2------0------0--------------2------0------0------:
E--------0----------------------------0--------------------:

 Gtr. 2

e----------------------------------------------------------:
B----------------------------------------------------------:
G----1-2----1-2----1-2----1-2-----1-2----1-2----1-2----1-2-:
D-0------2---------------------0------2--------------------:
A---------------0------0---------------------0------0------:
E----------------------------------------------------------:

Gtr. 1

e-2------0-----------------2------0-----------------2------0----------------:
B-3------0-----------------3------0-----------------3------0----------------:
G-2------1-----------------2------1-----------------2------1----------------:
D-0------2------4------4---0------2------4------4---0------2------4------4--:
A--------2------4------4----------2------4------4----------2------4------4--:
E--------0------2------2----------0------2------2----------0------2------2--:
 
Gtr. 2

e---------------------------------------------------------------------------------:
B---------------------------------------------------------------------------------:
G----1-2----1-2---1-2---1-2-----1-2----1-2---1-2---1-2-----1-2----1-2---1-2---1-2-:
D-0------2-------------------0------2-------------------0------2------------------:
A---------------------------------------------------------------------------------:
E---------------2-----2--------------------2-----2--------------------2-----2-----:
       Let all notes ring

Gtr. 1
                       *
e-2------0------0------0------:
B-3------0------2------2------:
G-2------1------2------2------:
D-0------2------2------2------:
A--------2------0------0------:
E--------0--------------------:
 *Let chord ring
 
Gtr. 2
                       *
e-----------------------------:
B-----------------------------:
G----1-2----1-2----1-2--------:
D-0------2--------------------:
A---------------0------0------:
E-----------------------------:
 *Let note ring
Comments