Plain White Ts - A Lonely September Chords & Tabs

 

A Lonely September Chords & Tabs

Plain White Ts Chords & Tabs

Version: 3 Type: Tab 0 ratings
1 star 2 stars 3 stars 4 stars 5 stars
comments

A Lonely September Tab

E |----0-----------------------------------------------------------------|----
B |----2-----------------------------------------------------------------|----
G |----2-----------------------------------------------------------------|----
D |----2-----------------------------------------------------------------|----
A |----0-----------------------------------------------------------------|----
E |----------------------------------------------------------------------|--0-



E |-------------2-----0-----0-----------------------------------------|-----2-
B |-------------3-----2-----0-----------------------------------------|-----3-
G |-------------2-----2-----1-----------------------------------------|-----2-
D |-------4-----0-----2-----2-----------------------------------------|-----0-
A |-------4-----------0-----2-----------------------------------------|-------
E |-0--0--2-----------------0-----------------------------------------|-------



E |----0-----0-----0-----------------------------------------------|-----2----
B |----0-----2-----2-----------------------------------------------|-----3----
G |----1-----2-----2-----------------------------------------------|-----2----
D |----2-----2-----2-----------------------------------------------|-----0----
A |----2-----0-----0-----------------------------------------------|----------
E |----0-----------------------------------------------------------|----------



E |-0-----------------2-----0-----0-----0-----------------------|-------------
B |-0-----------------3-----0-----2-----2-----------------------|-------------
G |-1-----------------2-----1-----2-----2-----------------------|-------------
D |-2-----4-----4-----0-----2-----2-----2-----------------------|-----------4-
A |-2-----4-----4-----------2-----0-----0-----------------------|-----------4-
E |-0-----2-----2-----------0-----------------------------------|--0--0--0--2-



E |----2-----0-----0-----------------------------------------|-----2-----0----
B |----3-----2-----0-----------------------------------------|-----3-----0----
G |----2-----2-----1-----------------------------------------|-----2-----1----
D |----0-----2-----2-----------------------------------------|-----0-----2----
A |----------0-----2-----------------------------------------|-----------2----
E |----------------0-----------------------------------------|-----------0----



E |-0-----0-----------------------------------------------|-----2-----0-------
B |-2-----2-----------------------------------------------|-----3-----0-------
G |-2-----2-----------------------------------------------|-----2-----1-------
D |-2-----2-----------------------------------------------|-----0-----2-----4-
A |-0-----0-----------------------------------------------|-----------2-----4-
E |-------------------------------------------------------|-----------0-----2-



E |----------2-----0-----0-----------------------------|-----2-----0----------
B |----------3-----0-----2-----------------------------|-----3-----0----------
G |----------2-----1-----2-----------------------------|-----2-----1----------
D |----4-----0-----2-----2-----------------------------|-----0-----2-----4----
A |----4-----------2-----0-----------------------------|-----------2-----4----
E |----2-----------0-----------------------------------|-----------0-----2----


[ Tab from: http://www.guitartabs.cc/tabs/p/plain_white_ts/a_lonely_september_tab_ver_3.html ]
E |-------2-----0-----------------------------------|-----------2-----0-----0-
B |-------3-----0-----------------------------------|-----------3-----2-----0-
G |-------2-----1-----------------------------------|-----------2-----2-----1-
D |-4-----0-----2-----------------------------------|-----4-----0-----2-----2-
A |-4-----------2-----------------------------------|-----4-----------0-----2-
E |-2-----------0-----------------------------------|-----2-----------------0-



E |----------------------------------------------|-----------2-----0-----0----
B |----------------------------------------------|-----------3-----2-----0----
G |----------------------------------------------|-----------2-----2-----1----
D |----------------------------------------------|-----4-----0-----2-----2----
A |----------------------------------------------|-----4-----------0-----2----
E |----------------------------------------------|-----2-----------------0----



E |-------------------------------------------|-----------------2-----0-----0-
B |-------------------------------------------|-----------------3-----2-----0-
G |-------------------------------------------|-----------------2-----2-----1-
D |-------------------------------------------|-----------4-----0-----2-----2-
A |-------------------------------------------|-----------4-----------0-----2-
E |-------------------------------------------|--0--0--0--2-----------------0-



E |----------------------------------------|-----2-----0-----0-----0----------
B |----------------------------------------|-----3-----0-----2-----2----------
G |----------------------------------------|-----2-----1-----2-----2----------
D |----------------------------------------|-----0-----2-----2-----2----------
A |----------------------------------------|-----------2-----0-----0----------
E |----------------------------------------|-----------0----------------------



E |-------------------------------------|-----2-----0-----------------2-----0-
B |-------------------------------------|-----3-----0-----------------3-----0-
G |-------------------------------------|-----2-----1-----------------2-----1-
D |-------------------------------------|-----0-----2-----4-----4-----0-----2-
A |-------------------------------------|-----------2-----4-----4-----------2-
E |-------------------------------------|-----------0-----2-----2-----------0-



E |----------------------------------|-----2-----0-----0-----0----------------
B |----------------------------------|-----3-----0-----2-----2----------------
G |----------------------------------|-----2-----1-----2-----2----------------
D |----------------------------------|-----0-----2-----2-----2----------------
A |----------------------------------|-----------2-----0-----0----------------
E |----------------------------------|-----------0----------------------------



E |-------------------------------|-----2-----0-------------------------------
B |-------------------------------|-----3-----0-------------------------------
G |-------------------------------|-----2-----1-------------------------------
D |-------------------------------|-----0-----2-----4-----4-------------------
A |-------------------------------|-----------2-----4-----4-------------------
E |-------------------------------|-----------0-----2-----2-------------------



E |----------------------------|-----2-----0-----0-----0----------------------
B |----------------------------|-----3-----0-----2-----2----------------------
G |----------------------------|-----2-----1-----2-----2----------------------
D |----------------------------|-----0-----2-----2-----2----------------------
A |----------------------------|-----------2-----0-----0----------------------
E |----------------------------|-----------0----------------------------------



E |-------------------------|-
B |-------------------------|-
G |-------------------------|-
D |-------------------------|-
A |-------------------------|-
E |-------------------------|-
Comments