Placebo - You Dont Care About Us Live Chords & Tabs

 

You Dont Care About Us Live Chords & Tabs

Placebo Chords & Tabs

Version: 1 Type: Tab 0 ratings
1 star 2 stars 3 stars 4 stars 5 stars
comments

You Dont Care About Us Live Tab

   
Placebo Guitar Tableture

You Don't Care About Us

Tabbed by Scott Andrews

Alternate version below
Thanx to Alexandre Viano (Aelx@multimania.com)

Normal Placebo Tuning ( F Bb Eb Ab C C )

VERSE

C  --------------------------------------------------------------
C  --------------------------------------------------------------
G# -----------------------------------11-11-11-11-11-11-11-11-11-
D# -7-7-7-6-7-6----------6-7-6--------11-11-11-11-11-11-11-11-11-
A# -7-7-7-7-7-7-7--7-7-7-7-7-7--------x--x--x--x--x--x--x--x--x--
F  -5-5-5-5-5-5-5--5-5-5-5-5-5---10---10-10-10-10-10-10-10-10-10-REPEAT

CHORUS

C  -------------------------------------------------------------
C  -------------------------------------------------------------
G# -10--10-10-10-10-10-10-10-10--11--11-11-11--11-11-11-11-11---
D# -x---x--x--x--x--x--x--x--x---x---x--x--x---x--x--x--x--x----
A# -11--11-11-11-11-11-11-11-11--12--12-12-12--12-12-12-12-12---
F  -9---9--9--9--9--9--9--9--9---10--10-10-10--10-10-10-10-10---

"It's Your Age...."  bit

C  ----------------------------------------------------------------------------
C  ----------------------------------------------------------------------------
G# -13-13-13-13-13-13-13-13-11-11-11-11-11-11-14-14-14-14-13-13-13-13-13-13----
D# -0--0--0--0--0--0--0--0--0--0--0--0--0--0--0--0--0--0--0--0--0--0--0--0-----
A# ----------------------------------------------------------------------------
F  ----------------------------------------------------------------------------REPEAT X2

POST-BRiDGE

C  ---------------------------------------------------------
C  ---------------------------------------------------------
G# --------------------13-13-13--13-13--13-13-14-15---------
D# -7-7-7-7-7-7-7-9-7---------------------------------------
A# -0-0-0-0-0-0-0-0-0---------------------------------------
F  --------------------4--4--4---4--4---4--4--5--6----------REPEAT X2

Placebo
You Don't Care About Us
Transcribed by Alexandre Viano (Aelx@multimania.com)

Tuning : Placebo ( F Bb Eb Ab C C )
(Tab for two guitars)
--------------------------------------------------------------------

  Intro / Verse

   +       +         +       +         +       +         +       +
e:-----------------|-----------------|-----------------|-----------------|
B:-----------------|-----------------|-----------------|-----------------|
G:-----------------|-----------------|-----------------|-----------------|
D:-----------------|-----------------|-0---0---0-0-0---|-0---0---0-0--0--|
A:-0---0---0-0-0---|-0---0---0--0--0-|-9---9---9-9-9---|-9---9---9-11-12-|
E:-9---9---9-9-9---|-9---9---9--10-12|-----------------|-----------------|

e:-5-------5-------|-5-------5-------|-----------------|-----------------|
B:-5-------5-------|-5-------5-------|-----------------|-----------------|
G:-----------------|-----------------|-----------------|-----------------|
D:---------6-7-6---|---------6-7-6---|-----------------|-11--11--11-11-11|
A:-5---5---------7-|-7---7-----------|-----------------|-----------------|
E:-5---5---5-5-5-5-|-5---5---5---5---|/10--10--10-10-10|-10--10--10-10-10|



   +       +         +       +         +       +         +       +
e:-----------------|-----------------|-----------------|-----------------|
B:-----------------|-----------------|-----------------|-----------------|
G:-----------------|-----------------|-----------------|-----------------|
D:-----------------|-----------------|-0---0---0-0-0---|-0-0-0---0-0-0---|
A:-0---0---0-0-0---|-0---0---0--0--0-|-9---9---9-9-9---|-7-7-7---5-5-5---|
E:-9---9---9-9-9---|-9---9---9--10-12|-----------------|-----------------|

e:-----------------|-----------------|-----------------|-----------------|
B:-----------------|-----------------|-----------------|-----------------|
G:-----------------|-----------------|-----------------|-----------------|
D:---------6-7-6---|---------6-7-6---|-----------------|-0---0---0--0--0-|
A:-5---5---------7-|-7---7-----------|-----------------|-----------------|
E:-5---5---5-5-5-5-|-5---5---5---5---|/10--10--10-10-10|-10--10--10-10-10|



   Chorus
[ Tab from: http://www.guitartabs.cc/tabs/p/placebo/you_dont_care_about_us_live_tab.html ]
   +       +         +       +         +       +         +       +
e:-----------------|-----------------|-----------------|-----------------|
B:-----------------|-----------------|-----------------|-----------------|
G:-10--10--10--10--|-10--10--10--10--|-11--11--11--11--|-11--11--11-11-11|
D:-11--11--11--11--|-11--11--11--11--|-12--12--12--12--|-12--12--12-12-12|
A:-11--11--11--11--|-11--11--11--11--|-12--12--12--12--|-12--12--12-12-12|
E:-9---9---9---9---|-9---9---9---9---|-10--10--10--10--|-10--10--10-10-10|

e:-9---9---9--9--9-|-9---9---9--9--9-|-10--10--10-10-10|-10--10--10-10-10|
B:-9---9---9--9--9-|-9---9---9--9--9-|-10--10--10-10-10|-10--10--10-10-10|
G:-10--10--10-10-10|-10--10--10-10-10|-11--11--11-11-11|-11--11--11-11-11|
D:-----------------|-----------------|-----------------|-----------------|
A:-----------------|-----------------|-----------------|-----------------|
E:-9---9---9--9--9-|-9---9---9--9--9-|-10--10--10-10-10|-10--10--10-10-10|
(Played by Brian. Very abrupt chords & some harmonics effects. Strum 
up...)


   Bridge (It's your age...)

   +       +         +       +         +       +         +       +
e:-----------------|-----------------|-----------------|-----------------|
B:-14--14--14--14--|-----------------|-14--14--14--14--|-----------------|
G:-13--13--13--13--|-11--11--11--11--|-14--14--14--14--|-13--13--13--3---|
D:-0---0---0---0---|-0---0---0---0---|-0---0---0---0---|-0---0---0---0---|
A:-----------------|-----------------|-----------------|-----------------|
E:-----------------|-----------------|-----------------|-----------------|

e:-----------------|-----------------|-----------------|-----------------|
B:-----------------|-----------------|-----------------|-----------------|
G:-----------------|-----------------|-----------------|-----------------|
D:-11--11--11--11--|-----------------|-----------------|-----------------|
A:-11--11--11--11--|-9---9---9---9---|-12--12--12--12--|-11--11--11--11--|
E:-10--10--10--10--|-10--10--10--10--|-10--10--10--10--|-10--10--10--10--| (2X)
this part is played by Brian after the last chorus


   End

   +       +         +       +         +       +         +       +
e:-----------------|-----------------|-----------------|-----------------|
B:-----------------|-----------------|-----------------|-----------------|
G:-----------------|-----------------|-----------------|-----------------|
D:-7---7---7-7-7---|-7---7-7-7-7-----|-6---6---6-6-6---|-6---6-6---------|
A:-7---7---7-7-7---|-7---7-7-7-7-----|-6---6---6-6-6---|-6---6-6-5-7-----|
E:-5---5---5-5-5---|-5---5-5-7-5-----|-4---4---4-4-4---|-4---4-4-5-7-----|

e:-5---5---5-5-5---|-5---5-5-7-5-----|-4---4---4-4-4---|-4---4-4---------|
B:-5---5---5-5-5---|-5---5-5-7-5-----|-4---4---4-4-4---|-4---4-4---------|
G:-----------------|-----------------|-----------------|-----------------|
D:-----------------|-----------------|-----------------|-----------------|
A:-7---7---7-7-7---|-7---7-7-7-7-----|-6---6---6-6-6---|-6---6-6-5-7-----|
E:-5---5---5-5-5---|-5---5-5-7-5-----|-4---4---4-4-4---|-4---4-4-5-7-----|
(Add harmonics)

   +       +         +       +         +       +         +       +
e:-----------------|-----------------|-----------------|-----------------|
B:-----------------|-----------------|-----------------|-----------------|
G:-----------------|-----------------|-----------------|---------------2-|
D:-7---7---7-7-7---|-7---7-7-7-7-----|-6---6---6-6-6---|-6---6-6-6-6---2-|
A:-7---7---7-7-7---|-7---7-7-7-7-----|-6---6---6-6-6---|-6---6-6-6-6---0-|
E:-5---5---5-5-5---|-5---5-5-7-5-----|-4---4---4-4-4---|-4---4-4-5-4-----|

e:-----------------|-----------------|-----------------|-----------------|
B:-----------------|-----------------|-----------------|-----------------|
G:-----------------|-----------------|-----------------|-----------------|
D:-----------------|-----------------|-----------------|---------------7-|
A:-7---7---7-7-7---|-7---7-7-7-7-----|-6---6---6-6-6---|-6---6-6-6-6---7-|
E:-5---5---5-5-5---|-5---5-5-7-5-----|-4---4---4-4-4---|-4---4-4-5-4---5-|
(Add harmonics)



Bridge 2 (It's a matter of trust)
(Guit.2, Guit.1 plays something like chorus)

e:-----------------|-----------------|-----------------|-----------------|
B:-----------------|-----------------|-----------------|-----------------|
G:-----------------|-----------------|-----------------|-----------------|
D:-----------------|-----------------|-----------------|-----------------|
A:-9---9---9---9---|-9---9---9---9---|-10--10--10--10--|-10--10--10--10--|
E:-9---9---9---9---|-9---9---9---9---|-10--10--10--10--|-10--10--10--10--|
   *   *   *   *     *   *   *   *     *   *   *   *     *   *   *   * 


######################################################


Comments