Placebo - This Picture Chords & Tabs

 

This Picture Chords & Tabs

Placebo Chords & Tabs

Version: 4 Type: Tab 0 ratings
1 star 2 stars 3 stars 4 stars 5 stars
comments

This Picture Tab

   
-------------------------------------------------------------------------------
			     This Picture - Placebo                            
-------------------------------------------------------------------------------

Tabbed by:DasPop
Email:schep_vreugde_en_leef@hotmail.com

standard tuning

intro = bass
verse

this riff is played by a keyboard or a guitard with a weird effect,
souds like this, call it guitar one.
e|-----------------|-----------------|-------------------|------------|
B|-----------------|-----------------|-------------------|------------|
G|------------3----|------------3----|--------3-0-5------|------------|
D|-6-4-6-6-3-----3-|-6-4-6-6-3-----3-|-6-4-6---------6-3-|-3-4--6-4-3-|
A|-----------------|-----------------|-------------------|------------|
E|-----------------|-----------------|-------------------|------------|
[ Tab from: http://www.guitartabs.cc/tabs/p/placebo/this_picture_tab_ver_4.html ]
guitar two plays this a few times, you'll have to listen to the song to know when and how much
e|-----------------|-----------------|-------------------|----------------|
B|-----------------|-----------------|-------------------|----------------|
G|-10-10-10-10-10--|--10-10-10-10-10-|--10-10-10-10-10---|-11-11-11-11-11-|
D|-10-10-10-10-10--|--10-10-10-10-10-|--10-10-10-10-10---|-11-11-11-11-11-|
A|--8--8--8--8--8--|---8--8--8--8--8-|---8--8--8--8--8---|--9--9--9--9--9-|
E|-----------------|-----------------|-------------------|----------------|

chorus
e|-----------------------------------------------------|
B|-----------------------------------------------------|
G|---------------------------6-6-6-6-6-6-6-6-6-6-6-6-6-|
D|-4-4-4-4-4-4-4-4-4-4-4-4-4-6-6-6-6-6-6-6-6-6-6-6-6-6-|x4
A|-4-4-4-4-4-4-4-4-4-4-4-4-4-4-4-4-4-4-4-4-4-4-4-4-4-4-|
E|-2-2-2-2-2-2-2-2-2-2-2-2-2---------------------------|

verse
Chorus
Bridge
e|----------------------------------------------------------------------|
B|----------------------------------------------------------------------|
G|-10-10-10-10-10-10-10-10-10-10-10-10-10-10-10-10-10-10-10-10-10-10-10-|
D|-10-10-10-10-10-10-10-10-10-10-10-10-10--8--8--8--8--8--8--8--8--8--8-|
A|--8--8--8--8--8--8--8--8--8--8--8--8--8--8--8--8--8--8--8--8--8--8--8-|
E|----------------------------------------------------------------------|

e|-------|
B|-------|
G|-10-10-|
D|--8--8-|x4
A|--8--8-|
E|-------|

chorus

Good luck with it! chears
Comments