Placebo - This Picture Chords & Tabs

 

This Picture Chords & Tabs

Placebo Chords & Tabs

Version: 1 Type: Bass Tab 0 ratings
1 star 2 stars 3 stars 4 stars 5 stars
comments

This Picture Bass Tab

   
-------------------------------------------------------------------------------
			     This Picture - Placebo
-------------------------------------------------------------------------------

Tabbed By :DasPop
e-mail:schep_vreugde_en_leef@hotmail.com 

standard tuning

intro
G|-----------------------------------------------------------------------------|
D|-----------------------------------------------------------------------------|
A|-4-4--4-4-4--4-4-4--4-4-4--4-4-4--4-4-4--4-4-4--4-4-4------------------------|
E|-----------------------------------------------------------------------------|
intro + verse
G|-----------------------------------------------------------------------------|
D|-----------------------------------------------------------------------------|
A|-4-4--4-4-4--4-4-4--4-4-4--4-8-8--8-8-8--8-8-8--8-8-8--8-4-4--4-4-4--4-4-4---|
E|-----------------------------------------------------------------------------|

G|-----------------------------------------------------------------------------|
D|-----------------------------------------------------------------------------|
A|-4-4-4--4-8-8--8-8-8--8-8-8--8-8-8--8-----------------------------8-8--------|
E|--------------------------------------6-6--6-6-6--6-6-6--6-6-6--6------------|

G|-----------------------------------------------------------------------------|
D|-----------------------------------------------------------------------------|
A|-8-8-8--8-8-8--8-8-8--8-9-9--9-9-9--9-9-9--9-9-9--6-4-4--4-4-4--4-4-4--4-4-4-|
E|-----------------------------------------------------------------------------|
[ Tab from: http://www.guitartabs.cc/tabs/p/placebo/this_picture_btab.html ]
chorus
G|-------------------------------------------------------------------------|
D|-------------------------------------------------------------------------|
A|-------------------------------------------------------------------------|x4
E|-2-2-2-2-2-2-2-2-2-2-2-2-2-2-9-9-9-9-9-9-9-9-9-9-9-9-9-9-----------------|

verse
chorus
bridge
G|---------------------------------------------------------------------|
D|-3-3-3-3-3-3-3-3-3-3-3-3-3-3-8-8-8-8-8-8-8-8-8-8-8-8-8-8-------------|
A|---------------------------------------------------------------------|
E|---------------------------------------------------------------------|

G|---------------------------------------------------------------------|
D|-3-3-3-3-3-3-3-3-3-3-3-3-3-3-8-8-8-8-8-8-8-8-8-8-8-8-8-8-10-8-8-10-8-|
A|---------------------------------------------------------------------|
E|---------------------------------------------------------------------|

G|-----------------------------------------------------------------------|
D|-3-3-3-3-3-3-3-3-3-3-3-3-3-3-8-8-8-8-8-8-8-8-8-8-8-8-8-8---------------|
A|-----------------------------------------------------------------------|
E|-----------------------------------------------------------------------|

G|-----------------------------------------------------------------------|
D|-3-3-3-3-3-3-3-3-3-3-3-3-3-3-------------------------------------------|
A|-----------------------------1-1-1-1-1-1-1-1-1-1-1-1-1-1-4-1-1-4-1-----|
E|-----------------------------------------------------------------------|

chorus
outro ("can't stop growing old")
end on
G|-----------------------------------------------------------------------|
D|-----------------------------------------------------------------------|
A|-----------------------------------------------------------------------|
E|-2---------------------------------------------------------------------|
Comments