Placebo - Teenage Angst Chords & Tabs

 

Teenage Angst Chords & Tabs

Placebo Chords & Tabs

Version: 2 Type: Tab 0 ratings
1 star 2 stars 3 stars 4 stars 5 stars
comments

Teenage Angst Tab

INTRO/VERSE
C  --------------------------------------
C  --------------------------------------
G# --14--14-14-14-12-12--12-12-12-12-12--
Eb --12--12-12-12-12-12--12-12-12-12-12--
Bb --0---0--0--0--0--0---0--0--0--0--0---REPEAT     
F  --------------------------------------
C   -----------------------------------------------------------------------------
C   -----------------------------------------------------------------------------
G#  --16--16-16-16-14--14-14-14-14---14--16-16-16-16-16-16-16-12-12-12-12-12-12--
Eb  ---0---0--0--0--0---0--0--0--0----0---0--0--0--0--0--0--0--0--0--0- 0--0--0--
Bb  -----------------------------------------------------------------------------
F   -----------------------------------------------------------------------------
C   -------------------------------------------
C   --0--0-0--0--0-0-0-0--0--0-0--0--0-0-0-0---
G#  --9--9-9--9--9-9-9-9--9--9-9--9--9-9-9-9---
Eb  --7--7-7--7--7-7-7-7--7--7-7--7--7-7-7-7---
Bb  --0--0-0--0--0-0-0-0--0--0-0--0--0-0-0-0---
F   ------------------------------------------- CHORUS
C   --0-0-0-0-0-0-0-0--0-0-0-0-0-0-0-0--0--0-0--0--0-0-0-0--0--0-0--0--0-0-0-0- 
C   --0-0-0-0-0-0-0-0--0-0-0-0-0-0-0-0--0--0-0--0--0-0-0-0--0--0-0--0--0-0-0-0-
G#  --6-6-6-6-6-6-6-6--4-4-4-4-4-4-4-4--9--9-9--9--9-9-9-9--9--9-9--9--9-9-9-9-
Eb  --4-4-4-4-4-4-4-4--2-2-2-2-2-2-2-2--7--7-7--7--7-7-7-7--7--7-7--7--7-7-7-7-
Bb  ------------------------------------0--0-0--0--0-0-0-0--0--0-0--0--0-0-0-0-
F   ---------------------------------------------------------------------------
THAT'S IT! ENJOY!
[ Tab from: http://www.guitartabs.cc/tabs/p/placebo/teenage_angst_tab_ver_2.html ]
Comments