Placebo - Teenage Angst Chords & Tabs

 

Teenage Angst Chords & Tabs

Placebo Chords & Tabs

Version: 1 Type: Tab 0 ratings
1 star 2 stars 3 stars 4 stars 5 stars
comments

Teenage Angst Tab

#-----------------------------PLEASE NOTE-------------------------------------#
#This OLGA file is the author's own work and represents their interpretation  #
#of the song. You may only use this file for private study, scholarship, or   #
#research. Remember to view this file in Courier, or some other monospaced    #
#font. See http://www.olga.net/faq/ for more information.                     #
#-----------------------------------------------------------------------------#

From: "Glyn Beynon" 
Subject: p/placebo/teenage_angst.tab
Date: Wed, 30 Sep 1998 22:36:19 PDT

TEENAGE ANGST - Placebo

TUNE THE HIGH E STRING DOWN TO B THEN TUNE THE WHOLE GUITAR HALF A STEP
UP OR PLACE CAPO ON FIRST FRET. THIS IS THE TUNING THE WHOLE ALBUM IS IN.
  
b:--------------------------------------------------------------|
B:--------------------------------------------------------------|
G:16--16--16--16--14--14--14--14--14--14--14--------------------|
D:14--14--14--14--14--14--14--14--14--14--14--------------------|
A:0---0---0---0---0---0---0---0---0---0---0---------------------|
E:--------------------------------------------------------------|
  INTRO/VERSE RHY FIG.1
[ Tab from: http://www.guitartabs.cc/tabs/p/placebo/teenage_angst_tab.html ]
b:---------------------------------------0--0--0--0--0--0--0--0-|
B:---------------------------------------0--0--0--0--0--0--0--0-|
G:---------------------------------------9--9--9--9--9--9--9--9-|
D:18--18--16--16--16--16--18-18-16-\12\--7--7--7--7--7--7--7--7-|
A:--------------------------------------------------------------|
E:--------------------------------------------------------------|

b:-0--0--0--0--0--0--0--0---------------------------------------|
B:-0--0--0--0--0--0--0--0---------------------------------------|
G:-9--9--9--9--9--9--9--9---------------------------------------|
D:-7--7--7--7--7--7--7--7---------------------------------------|
A:--------------------------------------------------------------|
E:--------------------------------------------------------------|
   RHY FIG. 2

b:-0--0--0--0--0--0--0--0--0--0--0--0--0--0--0--0--0--0--0--0--0|
B:-0--0--0--0--0--0--0--0--0--0--0--0--0--0--0--0--0--0--0--0--0|
G:-6--6--6--6--6--6--6--6--4--4--4--4--4--4--4--4--9--9--9--9--9|
D:-4--4--4--4--4--4--4--4--2--2--2--2--2--2--2--2--7--7--7--7--7|
A:--------------------------------------------------------------|
E:--------------------------------------------------------------|

b:--0--0--0--0--0--0--0--0--0--0--0----------|
B:--0--0--0--0--0--0--0--0--0--0--0----------|
G:--9--9--9--9--9--9--9--9--9--9--9----------|
D:--7--7--7--7--7--7--7--7--7--7--7----------|
A:-------------------------------------------|
E:-------------------------------------------|
      CHORUS/RHY FIG.3
Comments