Placebo - Special K Chords & Tabs

 

Special K Chords & Tabs

Placebo Chords & Tabs

Version: 6 Type: Tab 0 ratings
1 star 2 stars 3 stars 4 stars 5 stars
comments

Special K Tab

   
Cancion: Special K
Banda: Placebo
Album: Black Market Music
Por: Benjamin Janathan Garcia Melo  
Comentarios: bethan1031@hotmail.com

""" ¡¡¡Esta es la afinacion  que debes tener de las cuerdas en la guitarra ""1"",
para poder tocar esta cancion!!! """, La guitarra ""2"" usa afinacion normal.

Guitarra 1

Primera Cuerda - e  ( mi )
Segunda Cuerda - b  ( si )
Tercera Cuerda - g  ( sol )
Cuarta Cuerda -  d  ( re )
Quinta Cuerda -  a  ( la )
Sexta Cuerda  -  F# ( FA#)"sostenido" (( para hacer esto, la sexta cuerda debe sonar
como la quinta , presionandola en el tercer traste)) 

Guitarra 2

Primera Cuerda - e  ( mi )
Segunda Cuerda - b  ( si )
Tercera Cuerda - g  ( sol )
Cuarta Cuerda  - d  ( re )
Quinta Cuerda  - a  ( la )
Sexta Cuerda   - E  ( Mi )

Intro:

Este es el intro de una version en vivo. (( suena muy bien ))

e |----------------------|
b |-2-2-2-2-2-1-1-1-2-2-2|
g |-3-3-3-3-3-3-3-3-3-3-3|  x 2 
d |-3-3-3-3-3-3-3-3-3-3-3|
a |----------------------|
F#|----------------------|

Intro del Disco, o en estudio:

e |-----|
b |--1--|
g |--3--|  Haz esta pisada siguiendo el ritmo del intro. 
d |--3--|
a |-----|
F#|-----|

Usando distorsionador:

e |-------------------------------------------------------------|
b |-------------------------------------------------------------|
g |---------------------------------------------------3-3-3~~~--|
d |-11-11-10-11-13-11-10-11--11-11-10-11-13-11-10-11--3-3-3~~~--|  x2
a |-9--9--9--9--9--9--9--9---9--9--9--9--9--9--9--9---1-1-1~~~--|
F#|-0--0--0--0--0--0--0--0---0--0--0--0--0--0--0--0-------------|

Segunda Guitarra: (( esta esta afinada en tonos normales ))

e|------------------------------------------8-8-8---------------|
b|------------------------------------------------9~~~----------|
g|--------------------------------------------------------------|
d|-4-4-4-4-4-4-4-4--4-4-4-4-4-4-4-4--8-8-8~~--------------------|  x2
a|-4-4-4-4-4-4-4-4--4-4-4-4-4-4-4-4--8-8-8~~--------------------|
E|-2-2-2-2-2-2-2-2--2-2-2-2-2-2-2-2--6-6-6~~--------------------|


Verso :  ""Coming up beyond belief...

e |-----------|             
b |-----------|
g |-3-3-3~~~--|
d |-3-3-3~~~--| Guitarra 1
a |-1-1-1~~~--|
F#|-----------|

e |----------8-8-8-----|
b |----------------7~~~|
g |--------------------|
d |-8-8-8~~~-----------| Guitarra 2
a |-8-8-8~~~-----------|
E |-6-6-6~~~-----------|


Verso :  ""Parapapa,pararara..... 

Guitarra 1

e |-------------------------------------------------------------|
b |-------------------------------------------------------------|
g |---------------------------------------------------3-3-3~~~--|
d |-11-11-10-11-13-11-10-11--11-11-10-11-13-11-10-11--3-3-3~~~--|  
a |-9--9--9--9--9--9--9--9---9--9--9--9--9--9--9--9---1-1-1~~~--|
F#|-0--0--0--0--0--0--0--0---0--0--0--0--0--0--0--0-------------|

Guitarra 2

e|------------------------------------------8-8-8---------------|
b|------------------------------------------------9~~~----------|
g|--------------------------------------------------------------|
d|-4-4-4-4-4-4-4-4--4-4-4-4-4-4-4-4--8-8-8~~--------------------| 
a|-4-4-4-4-4-4-4-4--4-4-4-4-4-4-4-4--8-8-8~~--------------------|
E|-2-2-2-2-2-2-2-2--2-2-2-2-2-2-2-2--6-6-6~~--------------------|


""No hesitation, no delay,You come on just like special K¡¡
  Just like I swallowed half my stash, I never ever want to crash


Guitarra 1 ((en esta parte al principio solo entra la guitarra 1))

e |------------------------------------|
b |------------------------------------|
g |-6-6-6-6-6-6-6-6-6-6-6-6-6-6-6-6----|
d |-6-6-6-6-6-6-6-6-6-6-6-6-6-6-6-6----|
a |-4-4-4-4-4-4-4-4-4-4-4-4-4-4-4-4----|
F#|------------------------------------|
                                                    
e |------------------------------------------|
b |------------------------------------------|
g |-8-8-8-8-8-8-8-8-11-11-11-11-11-11-11-11--|
d |-8-8-8-8-8-8-8-8-11-11-11-11-11-11-11-11--|
a |-6-6-6-6-6-6-6-6-9--9--9--9--9--9--9--9---|
F#|------------------------------------------|


""No hesitation, no delay, You come on just like special K¡¡
  Now you're back with dope demand, I'm on sinking sand

Guitarra 2 ((en esta parte se incorpora))

e |------------------------------------|
b |------------------------------------|
g |-6-6-6-6-6-6-6-6-8-8-8-8-3-3-3-3----|
d |-6-6-6-6----------------------------|
a |-4-4-4-4-4-4-4-4-6-6-6-6-1-1-1-1----|
E |------------------------------------|

e |------------------------------------------|
b |------------------------------------------|
g |-8-8-8-8-8-8-8-8-11-11-11-11-11-11-11-11--|
d |-8-8-8-8-8-8-8-8-11-11-11-11-11-11-11-11--|
a |-6-6-6-6-6-6-6-6-9--9--9--9--9--9--9--9---|
E |------------------------------------------|

[ Tab from: http://www.guitartabs.cc/tabs/p/placebo/special_k_tab_ver_6.html ]
Terminada la estrofa hay un silencio, y la guitarra 1 
hace esto con (( palm mute ))


e |-------------------|
b |-------------------|
g |-6-6-6-6-6-6-6-6---|
d |-6-6-6-6-6-6-6-6---|
a |-4-4-4-4-4-4-4-4---|
F#|-------------------|


 ""Gravity, No escaping gravity.......

Guitarra 1 y 2

 |------------------------------------|
 |------------------------------------|
 |-6-6-6-6-6-6-6-6-6-6-6-6-6-6-6-6----|
 |-6-6-6-6-6-6-6-6-6-6-6-6-6-6-6-6----|
 |-4-4-4-4-4-4-4-4-4-4-4-4-4-4-4-4----|
 |------------------------------------|

 |------------------------------------|
 |------------------------------------|
 |-3-3-3-3-3-3-3-3-3-3-3-3-3-3-3-3----|
 |-3-3-3-3-3-3-3-3-3-3-3-3-3-3-3-3----|
 |-1-1-1-1-1-1-1-1-1-1-1-1-1-1-1-1----|
 |------------------------------------|


""I fall down... hit the ground, Make a heavy sound...

Guitarra 1

e |------------------------------------------|
b |------------------------------------------|
g |-------------------11-11-11-10-10-10------|
d |-11-11-11-11-11-11------------------------|
a |-9--9--9--9--9--9--9--9--9--8--8--8-------|
F#|-0--0--0--0--0--0-------------------------|


Guitarra 2

e|------------------------------------------|
b|------------------------------------------|
g|------------------11-11-11-10-10-10-------|
d|-4--4--4--4--4--4-------------------------|
a|-4--4--4--4--4--4-9--9--9--8--8--8--------|
E|-2--2--2--2--2--2-------------------------|


""Every time you seem to come around¡¡¡¡¡¡¡¡¡¡¡¡¡¡

Guitarra  1 

e |----------------------------------------------|
b |----------------------------------------------|
g |-------------------15-15-15--13~~-11~~-10~~---|
d |-11-11-11-11-11-11----------------------------|
a |-9--9--9--9--9--9--13-13-13--11~~-9~~--8~~----|
F#|-0--0--0--0--0--0-----------------------------|


Guitarra 2

e|------------------|
b|------------------|
g|------------------|
d|-4-4-4-4-4-4-4-4--|
a|-4-4-4-4-4-4-4-4--|
E|-2-2-2-2-2-2-2-2--|


I'll describe the way I feel, You're my new Achilles heel...

(La canción se repite con la misma estructura en verso y coros)

Para terminar se toca esto¡¡¡¡

"""No escaping gravity  ( se repite 4 veces )

Guitarra 1 y 2

 |------------------------------------|
 |------------------------------------|
 |-6-6-6-6-6-6-6-6-6-6-6-6-6-6-6-6----|
 |-6-6-6-6-6-6-6-6-6-6-6-6-6-6-6-6----|
 |-4-4-4-4-4-4-4-4-4-4-4-4-4-4-4-4----|
 |------------------------------------|

 |------------------------------------|
 |------------------------------------|
 |-3-3-3-3-3-3-3-3-3-3-3-3-3-3-3-3----|
 |-3-3-3-3-3-3-3-3-3-3-3-3-3-3-3-3----|
 |-1-1-1-1-1-1-1-1-1-1-1-1-1-1-1-1----|
 |------------------------------------|

SALIDA:

"""Gravity .... ( 4  veces )


Guitarra  1 

e |----------------------------------------------|
b |----------------------------------------------|
g |-------------------15-15-15--13~~-11~~-6~~----|
d |-11-11-11-11-11-11----------------------------|
a |-9--9--9--9--9--9--13-13-13--11~~-9~~--4~~----|
F#|-0--0--0--0--0--0-----------------------------|


Guitarra 2

e|---------------------|
b|---------------------|
g|-----------------6~~-|
d|-4-4-4-4-4-4-4-4-6~~-|
a|-4-4-4-4-4-4-4-4-4~~-|
E|-2-2-2-2-2-2-2-2-----|

Aqui termina la cancion

Letra:

VERSO:

Coming up beyond belief
On this coronary thief  ( parapapa,parararam...)
More than just a leitmotif
More chaotic, no relief ( parapapa,parararam...)
I'll describe the way I feel
Weeping wounds that never heal ( parapapa,parararam...)
Can the savior be for real
Or are you just my seventh seal? ( parapapa,parararam...)


CORO:

No hesitation, no delay
You come on just like special K
Just like I swallowed half my stash
I never ever want to crash
No hesitation, no delay
You come on just like special K
Now you're back with dope demand
I'm on sinking sand
Gravity
No escaping gravity
Gravity
No escaping... not for free
I fall down... hit the ground
Make a heavy sound
Every time you seem to come around

VERSO 2:

I'll describe the way I feel
You're my new Achilles heel ( parapapa,parararam...)
Can this savior be for real
Or are you just my seventh seal? ( parapapa,parararam...)

CORO:

No hesitation, no delay
You come on just like special K
Just like I swallowed half my stash
I never ever want to crash
No hesitation, no delay
You come on just like special K
Now you're back with dope demand
I'm on sinking sand
Gravity
No escaping gravity
Gravity
No escaping... not for free
I fall down... hit the ground
Make a heavy sound
Every time you seem to come around

No escaping gravity
No escaping gravity
No escaping gravity
No escaping gravity
Gravity, gravity, gravity, graviy



--------------------------------------------------
ESTA ES TODA LA CANCIÓN , EN REALIDAD ES MUY SENCILLA, SOLO PRACTICALA¡¡
Si tienes alguna duda, escribeme: bethan1031@hotmail.com
Comments