Placebo - Special K Chords & Tabs

 

Special K Chords & Tabs

Placebo Chords & Tabs

Version: 4 Type: Tab 0 ratings
1 star 2 stars 3 stars 4 stars 5 stars
comments

Special K Tab

Special k
Placebo

Tabbed by: Mordred...


Standard tunning

Intro:
(Clean sound)
Listen to the song to catch the time
e|---2-2-2-2-2------------------------------------------------|
b|---2-2-2-3-2------------------------------------------------|
g|---4-4-4-4-4------------------------------------------------|
d|---4-4-4-4-4------------------------------------------------|
a|---2-2-2-2-2------------------------------------------------|
E|---x-x-x-x-x------------------------------------------------|

(Distortion and chorus)
[ Tab from: http://www.guitartabs.cc/tabs/p/placebo/special_k_tab_ver_4.html ]
e|-------------------------------------------------------|
b|-------------------------------------------------------|
g|-------------------------------------------------------|
d|-------------------------------------------------------|
a|--5-5-5-5-5-5-5-5-5-5-5-5-5-5-5-5----------------------|
E|--3-3-3-3-3-3-3-3-3-3-3-3-3-3-3-3----------------------|


2nd. Guitar plays:
                                         --> Let ring
e|----------------------------------------2---------------|
b|----------------------------------------2---------------|
g|----------------------------------------4---------------|
d|----------------------------------------4---------------|
a|---4-5-7-5-4-5-5------4-5-7-5-4---------2---------------|
E|---------------------------------5-5----x---------------|
                                             Coming up beyond belief 
                                             on this coronary thief..


This part is repeated until: "Or are you just my seventh seal?"


And for now that's all friends, I'll tab the whole song. I think this part
is similar at the played on the album,try it. For any correction or comment
send me an e-mail to: Superdoblao@hotmail.com. Bye
Comments