Placebo - Special K Chords & Tabs

 

Special K Chords & Tabs

Placebo Chords & Tabs

Version: 2 Type: Tab 0 ratings
1 star 2 stars 3 stars 4 stars 5 stars
comments

Special K Tab

   
#----------------------------------PLEASE NOTE---------------------------------#
#This file is the author's own work and represents their interpretation of the #
#song. You may only use this file for private study, scholarship, or research. #
#------------------------------------------------------------------------------#

Special K by Placebo in normal tuning

I found that over the inet in some wierd thing they call standard Placebo tuning(FCG#EbBbF#), which basically means that all string except the 6th are tuned up a semitone, the 6th is 1.5 tones higher. Having just visited the Placebo concert I decided to retab it to normal tuning. you may need to put a capo on the first fret.

Intro

e|------
B|--1---
G|--10-- repeat several times
D|--10--
A|--1---
E|------
[ Tab from: http://www.guitartabs.cc/tabs/p/placebo/special_k_tab_ver_2.html ]
Intro continues (play twice):
e|-----------------------------------------------------|
B|-----------------------------------------------------|
G|-----------------------------------------------------|
D|--11--11-11-11--10--11-11--13--11--10-10-10--11-11---|
A|--9---9--9--9---9---9--9---9---9---9--9--9---9--9----|
E|-----------------------------------------------------|
This one is also sang by some girlie vocals after each line of the verse

Verse:

e|--(1)---(1)------(1)------|
B|--------------------------|
G|------------(13)-----(13)-|


"No hesitation, no delay..."
A|--------------------------------|
E|---10-10-10-12-12-12-15-15-15---|

The other guitar plays C#5 D#5 E5.

Then

G|---6-6-6---5-5-5---8-8-8---1-1-1---8-8-8---11-11-11---|

Chorus ("Gravity...")
Guitar1:

C#5 A#5

A|---4-4-4---9-9-9---9-9---8-8-8---|
E|---3-3-3-------------------------|

Guitar2:

E|-------------|
B|---9-----11--|
G|---10----10--|
D|---11----8---|
A|---------1---|
E|-------------| Strum each several times

Before going back into verse C#5 A#5 G#5 F5

End on C#5

Arrangement:

Intro
Verse1
Vesre2
prechorus
chorus
verse3
Comments