Placebo - Second Sight Chords & Tabs

 

Second Sight Chords & Tabs

Placebo Chords & Tabs

Version: 1 Type: Tab 0 ratings
1 star 2 stars 3 stars 4 stars 5 stars
comments

Second Sight Tab

   
Artist: Placebo
Song: Second Sight
Album: Sleeping With Ghosts
Tabbed by: Mark
Email: Feel_wick@hotmail.com

Standard tuning

Intro/Verse 
e|-----------------------------
B|-----------------------------
G|-----------------------------
D|----------------------------- (X 12)
A|-9-9-9-9-9-9-9-9-9--8p-8p-8p-
E|-----------------------------

then (0.33) (part 1)
e|-----------------------------------------
B|-----------------------------------------
G|-11-11-11-11-11-11-11-11-6-6-6-6-6-6-6-6-
D|-11-11-11-11-11-11-11-11-6-6-6-6-6-6-6-6- (X 2)
A|-9--9--9--9--9--9--9--9--4-4-4-4-4-4-4-4-
E|-----------------------------------------
then
e|----------------------------------------------------------
B|----------------------------------------------------------
G|-15-15-15-15-15-15-15-15-15-15-15-15-15-15-15-15-15-15-15-
D|-15-15-15-15-15-15-15-15-15-15-15-15-15-15-15-15-15-15-15-
A|-13-13-13-13-13-13-13-13-13-13-13-13-13-13-13-13-13-13-13-
E|----------------------------------------------------------

repeat verse (X 10) (0.44)
[ Tab from: http://www.guitartabs.cc/tabs/p/placebo/second_sight_tab.html ]
then (1.07) (part 2)
e|---------------------------------------------------
B|---------------------------------------------------
G|-11-11-11-11-11-11-11-11-6-6-6-6-6-6-6-6-4-4-4-4-4-
D|-11-11-11-11-11-11-11-11-6-6-6-6-6-6-6-6-4-4-4-4-4-
A|-9--9--9--9--9--9--9--9--4-4-4-4-4-4-4-4-2-2-2-2-2-
E|---------------------------------------------------
                                                                  (X2)
e|--------------------------------------------------------
B|--------------------------------------------------------
G|-11-11-11-11-11-11-11-11-6-6-6-6-6-6-6-6-13-13-13-13-13-
D|-11-11-11-11-11-11-11-11-6-6-6-6-6-6-6-6-13-13-13-13-13-
A|-9--9--9--9--9--9--9--9--4-4-4-4-4-4-4-4-11-11-11-11-11-
E|--------------------------------------------------------

Chorus (1.18)
e|--------------------------------------------------------------------------
B|--------------------------------------------------------------------------
G|--------------------------------------------------------------------------
D|-19-19-19-19-19-19-19-19-19-12-10-8----15-15-15-15-15-15-15-15-15-12-10-8- (X 2)
A|--------------------------------------------------------------------------
E|--------------------------------------------------------------------------

then (1.29)
e|---
B|---
G|---
D|---
A|-9-
E|---

(1.51)
e|-----------------------------
B|-----------------------------
G|-----------------------------
D|-4-4-4-4-4-4-4-8-8-8-8-8-8-8- (X4)
A|-4-4-4-4-4-4-4-8-8-8-8-8-8-8-
E|-2-2-2-2-2-2-2-6-6-6-6-6-6-6-

Repeat (part 2) (X 2) (2.02)

then
Repeat Chorus (X 4) (2.13)

End on
e|---
B|---
G|---
D|---
A|-9-
E|---
Comments