Placebo - Scared Of Girls Chords & Tabs

 

Scared Of Girls Chords & Tabs

Placebo Chords & Tabs

Version: 1 Type: Tab 0 ratings
1 star 2 stars 3 stars 4 stars 5 stars
comments

Scared Of Girls Tab

   
Placebo - Scared of girls
Without you I'm nothing
Tabbed by Scott Andrews (TheBSH.com)
Revised by: TheInquisitions@yahoo.com

(D# A# D# G# C C)

Intro:

---------------------------------------
---------------------------------------
---------------------------------------
---------------------------------------
--7-7----7-7----7-7----7-7------------- 
--7-7----7-7----7-7----7-7-------------

Verse:

----------------------------------------------
----------------------------------------------
----------------------------------------------
----------------------------------------------
--7-7-7-7-10-10-10-10-7-7-7-7-10-10-10-10----- Repeat x1
--7-7-7-7-10-10-10-10-7-7-7-7-10-10-10-10-12--

Pre Courus:

--------------------------------------------
--------------------------------------------
--------------------------------------------
-7-7-7--------------------------------------
-7-7-7--7--7--7--7--7--7--7--7--7----------- Repeat x3
-7-7-7--------------------------------------


Last Pre Courus:
[ Tab from: http://www.guitartabs.cc/tabs/p/placebo/scared_of_girls_tab.html ]
-------------------------------------------
-------------------------------------------
-------------------------------------------
-7-7-7-------------------------------------
-7-7-7--5--5--5--5--5--5--5--5--5----------
-7-7-7-------------------------------------


--------------------------------------------
--------------------------------------------
--------------------------------------------
--------------------------------------------
-0-0-7-7-7-8-8-14-12----0-0-7-7-7-8-8--14-15 Repeat x1
--------------------------------------------

Post Courus:

--------------------------------------
--------------------------------------
--------------------------------------
---------------5-2--------------------
-------------------------------------- Repeatx1
-5-5-5-5-5-1-1------------------------


Solo:

-------------------------------------------------------------------------------
-------------------------------------------------------------------------------
-17-17-17-16-16--16-16-16-14-14--14-14-14-12-12--12-12-12-10-10--10-10-10-9-9-
-------------------------------------------------------------------------------
-------------------------------------------------------------------------------
-------------------------------------------------------------------------------
Comments