Placebo - Scared Of Girls Live Chords & Tabs

 

Scared Of Girls Live Chords & Tabs

Placebo Chords & Tabs

Version: 2 Type: Tab 0 ratings
1 star 2 stars 3 stars 4 stars 5 stars
comments

Scared Of Girls Live Tab

   
PLACEBO GUITAR TAB - SCARED OF GIRLS

TRANSCRIBED BY SCOTT ANDREWS

"PURE MORNING TUNING" (D# A# D# G# C C)

INTRO:

C  ---------------------------------------|
C  ---------------------------------------|
G# ---------------------------------------|
D# ---------------------------------------|
A# --7-7----7-7----7-7----7-7-------------|
D# --7-7----7-7----7-7----7-7-------------|

VERSE:

C  ----------------------------------------------|
C  ----------------------------------------------|
G# ----------------------------------------------|
D# ----------------------------------------------|
A# --7-7-7-7-10-10-10-10-7-7-7-7-10-10-10-10-----|REPEAT
F  --7-7-7-7-10-10-10-10-7-7-7-7-10-10-10-10-12--|

"CAREENIN`" BIT:

C  --------------------------------------------|
C  --------------------------------------------|
G# --------------------------------------------|
D# -7-7-7--------------------------------------|
A# -7-7-7-<7>-<7>-<7>-<7>-<7>-<7>-<7>-<7>-<7>--|REPEAT
F  -7-7-7--------------------------------------|(X3)

LAST "CAREENIN`" BIT (JUST BEFORE CHORUS)

C  -------------------------------------------|
C  -------------------------------------------|
G# -------------------------------------------|
D# -7-7-7-------------------------------------|
A# -7-7-7-<5>-<5>-<5>-<5>-<5>-<5>-<5>-<5>-<5>-|
F  -7-7-7-------------------------------------|

[ Tab from: http://www.guitartabs.cc/tabs/p/placebo/scared_of_girls_live_tab_ver_2.html ]
C  --------------------------------------------------|
C  --------------------------------------------------|
G# --------------------------------------------------|
D# --------------------------------------------------|
A# -0-0-7-7-7-8-8-14-12----0-0-7-7-7-8-8--14-15------|REPEAT
F  --------------------------------------------------|

"GOT A PLACE INSIDE IT"  BIT:

C  --------------------------------------|
C  --------------------------------------|
G# --------------------------------------|
D# ---------------5-2--------------------|
A# --------------------------------------|REPEAT
F  -5-5-5-5-5-1-1------------------------|


SOLO:

C  ---------------------------------------------------------------------------------------------|
C  ---------------------------------------------------------------------------------------------|
G# -17-17-17-16-16--16-16-16-14-14--14-14-14-12-12--12-12-12-10-10--*10-10-10-9-9---------------|
D# ---------------------------------------------------------------------------------------------|
A# ---------------------------------------------------------------------------------------------|
F  ---------------------------------------------------------------------------------------------|
                                                                    *REPEAT (X4)

NOTES: STEFAN PLAYS GUITAR ON THIS (FENDER VI), WHICH IS WHY IT SOUNDS SUCH A BASS HEAVY SONG.
THIS IS BASED ON WHAT BOTH BRIAN AND STEFAN PLAY (LIVE AND ON RECORD)

******** NOTE ***********

LIVE, BRIAN PLAYS THIS IN THE CHORUS:

C  ------------------------------------------|
C  ------------------------------------------|
G# ------------------------------------------|
D# -7-7-7-7-7-7-7-7-7-7--7-7-7-7-7-7-7-7-7---|
A# -0-0-0-0-0-8-8-8-8-8--0-0-0-0-0-8-8-8-8---|REPEAT
F  ------------------------------------------|
Comments