Placebo - Pure Morning Chords & Tabs

 

Pure Morning Chords & Tabs

Placebo Chords & Tabs

Version: 2 Type: Tab 0 ratings
1 star 2 stars 3 stars 4 stars 5 stars
comments

Pure Morning Tab

#-----------------------------PLEASE NOTE-------------------------------------#
#This OLGA file is the author's own work and represents their interpretation  #
#of the song. You may only use this file for private study, scholarship, or   #
#research. Remember to view this file in Courier, or some other monospaced    #
#font. See http://www.olga.net/faq/ for more information.                     #
#-----------------------------------------------------------------------------#

From: "Glyn Beynon" 
Subject: p/placebo/pure_morning.tab
Date: Wed, 30 Sep 1998 22:30:05 PDT

Pure Morning - Placebo

This is a very basic tab. As a matter of fact it is wrong. I saw them on
TOTP but I couldn't figure what the hell they were doing, so I was pretty
pissed off when I tabbed this. But it sounds quite good played along with
the CD, and that fine for me at the moment.  It's not the exact strumming
pattern, but you get the idea however.
[ Tab from: http://www.guitartabs.cc/tabs/p/placebo/pure_morning_tab_ver_2.html ]
Verse
|-----------|		|-----------|
|-----------|		|-----------|
|-----------|  etc. OR	|--9-9-9-9--|  etc.
|-----------|		|-----------|
|--7-7-7-7--|		|--7-7-7-7--|
|--0-0-0-0--|		|--0-0-0-0--|

Chorus (day's dawning / pure morning parts)
|----------------------------------|
|----------------------------------|
|----------------------------------|
|----------------------------------|
|--7-7-7-7-7-11-11-11-14-14-14-14--|
|--0-0-0-0-0--0--0--0--0--0--0--0--|
   day's dawning

|-------------------------|
|-------------------------|
|-------------------------|
|-------------------------|
|--7-7-7-7-7-4-4-4-5-5-5--|
|--0-0-0-0-0-0-0-0-0-0-0--|
   skin's crawling

OR

|----------------------------------|
|----------------------------------|
|--9-9-9-9-9-13-13-13-16-16-16-16--|
|----------------------------------|
|--7-7-7-7-7-11-11-11-14-14-14-14--|
|--0-0-0-0-0--0--0--0--0--0--0--0--|
   day's dawning

|-------------------------|
|-------------------------|
|--9-9-9-9-9-6-6-6-7-7-7--|
|-------------------------|
|--7-7-7-7-7-4-4-4-5-5-5--|
|--0-0-0-0-0-0-0-0-0-0-0--|
   skin's crawling
Comments