Placebo - Plasticine Chords & Tabs

 

Plasticine Chords & Tabs

Placebo Chords & Tabs

Version: 2 Type: Tab 0 ratings
1 star 2 stars 3 stars 4 stars 5 stars
comments

Plasticine Tab

   
Artist: Placebo
Song: Plasticine
Album: Sleeping With Ghosts
Tabbed by: Mark
Email: Feel_wick@hotmail.com

Standard tuning

Intro/Verse 
e|-----------------------------------------------------------------------------------
B|-----------------------------------------------------------------------------------
G|-----------------------------------------------------------------------------------
D|-10-10-10-10-10-10-10-10-10-10-10-10-10-10--7-7-7-7-7-7-7--14-14-14-14-14-14-14-14- (X2)
A|-10-10-10-10-10-10-10-10-10-10-10-10-10-10--7-7-7-7-7-7-7--14-14-14-14-14-14-14-14-
E|-8--8--8--8--8--8--8--8--8--8--8--8--8--8---5-5-5-5-5-5-5--12-12-12-12-12-12-12-12-

e|----------------------------------------------------------------------
B|----------------------------------------------------------------------
G|----------------------------------------------------------------------
D|-12-12-12-12-12-12-12-12-12--9-9-9-9-9-9-9-9--14-14-14-14-14-14-14-14-
A|-12-12-12-12-12-12-12-12-12--9-9-9-9-9-9-9-9--14-14-14-14-14-14-14-14-
E|-10-10-10-10-10-10-10-10-10--7-7-7-7-7-7-7-7--12-12-12-12-12-12-12-12-

e|----------------------------------------------------
B|----------------------------------------------------
G|----------------------------------------------------
D|-7-7-7-7-7-7-7--14-14-14-14-14-14-14-14-14-14-14-14-
A|-7-7-7-7-7-7-7--14-14-14-14-14-14-14-14-14-14-14-14-
E|-5-5-5-5-5-5-5--12-12-12-12-12-12-12-12-12-12-12-12-

Repeat Verse

Chorus (0.47)
e|------------------------------------
B|------------------------------------
G|------------------------------------
D|---7------14------------------------ (X4)
A|---7------14------------------------
E|---5------12------6-6-7-6-7-6-7-6-4-

Repeat Verse

Repeat Chorus
[ Tab from: http://www.guitartabs.cc/tabs/p/placebo/plasticine_tab_ver_2.html ]
Solo (2.01)
e|-------------------------------------------------------------------
B|-------------------------------------------------------------------
G|-------------------------------------------------------------------
D|--7-7-7-7-7-7-7-9-9-9-9-9-9-9-10-10-10-10-10-10-10-8-8-8-8-8-8-8-8- (X2)
A|-------------------------------------------------------------------
E|-------------------------------------------------------------------

then
e|------------------------------------------------------------------------------------
B|------------------------------------------------------------------------------------
G|------------------------------------------------------------------------------------
D|10-10-10-10-10-10-10-11-11-11-11-11-11-11-12-12-12-12-12-12-12-13-13-13-13-13-13-13-
A|------------------------------------------------------------------------------------
E|------------------------------------------------------------------------------------

E|------------------------------------------------------------------------------------
B|------------------------------------------------------------------------------------
G|------------------------------------------------------------------------------------
D|-14-14-14-14-14-14-14-15-15-15-15-15-15-15-16-16-16-16-16-16-16-17b-17b-17b-17b-17b-
A|------------------------------------------------------------------------------------
E|------------------------------------------------------------------------------------

Repeat Chorus

Outro (2.51)
e|--------------------------------------------------------
B|--------------------------------------------------------
G|--------------------------------------------------------
D|-10-7-7-7-7--10-7-7-7-7--12-12-12-12-12--14-14-14-14-14- (X4)
A|-10-7-7-7-7--10-7-7-7-7--12-12-12-12-12--14-14-14-14-14-
E|-8--5-5-5-5--8--5-5-5-5--10-10-10-10-10--12-12-12-12-12-

End on
e|----
B|----
G|----
D|--7-
A|--7-
E|--5-
Comments