Placebo - Passive Aggressive Chords & Tabs

 

Passive Aggressive Chords & Tabs

Placebo Chords & Tabs

Version: 1 Type: Tab 0 ratings
1 star 2 stars 3 stars 4 stars 5 stars
comments

Passive Aggressive Tab

My first tab so appologies if its bad
Standard Placebo Tuning except thick F becomes F#

c---------------------------------------------
C---------------------------------------------
G#--------------------------------------------
D#--------------------------------------------
A#-15--15--15--15----------------------x4-----
F#------------------0-0-0-0-0-0-0-0-----------


      2nd time just play this________________________________________________________
     |
c------------------------------------------------------------------------------------
C------------------------------------------------------------------------------------
G#-----------------------------------------------------------------------------------
D#-----------------------------------------------------------------------------------  x2
A#-15\12-12-12-12-12-10-12-12\15-12-10-10-12-12-10-12-12-12-12-12-10-12-10\7-7-7-7-7/
F#-----------------------------------------------------------------------------------


c---------------------------------------------
C---------------------------------------------
G#--------------------------------------------
D#--------------------------------------------
A#-8-8-8-8-8-10-8-7----------------------x4---
F#-0-0-0-0-0-0--0-0-0-0-0-0-0-0-0-0-----------
                    ______P.M._____

c------------------------------------------------------------------------------
C------------------------------------------------------------------------------
G#-----------------------------------------------------------------------------
D#-----------------------------------------------------------------------------  x2
A#-12-12-12-10-12-12\15-12-10-10-12-12-10-12-12-12-12-12-10-12-10\7-7-7-7-7/---
F#-----------------------------------------------------------------------------



c---------------------------------------------
C---------------------------------------------
G#--------------------------------------------
D#--------------------------------------------
A#-8-8-8-8-8-10-8-7----------------------x4---
F#-0-0-0-0-0-0--0-0-0-0-0-0-0-0-0-0-----------
                    _____P.M.______


1st chorus
c-----------------------------------------------------------------------------
C-----------------------------------------------------------------------------
G#----------------------------------------------------------------------------
D#-------7-7-7-7-----------------7-7-7-7-7-7----------------------------------
A#---------------7-7-7-7-7-7-7-7--------------------------------------7-7-7-7-
F#-5-5-5-------------------------------------5-5-5-5-5-5-5-5---0-0-0----------


c------------------------------------------------------------------------------
C------------------------------------------------------------------------------
G#-----------------------------------------------------------------------------
D#-----------------------------------------------------------------------------
A#-----------------10-10-10-10-10-10-10-10-10-10-10-10\12-12-12-12-12-12-12-12-
F#-5-5-5-5-5-5-5-5-------------------------------------------------------------

[ Tab from: http://www.guitartabs.cc/tabs/p/placebo/passive_aggressive_tab.html ]
c-------------------------------------------------------------------------
C-------------------------------------------------------------------------
G#------------------------------------------------------------------------
D#-------7-7-7-7----------------------------------------------------------
A#---------------7-7-7-7-7-7-7-7----------------------------------7-7-7-7-
F#-5-5-5-------------------------5-5-5-5-5-5-5-5--0-0-0-0-0-0-0-0---------


c-------------------------------------------------------------------------
C-------------------------------------------------------------------------
G#------------------------------------------------------------------------
D#-7-7-7-7-----------------7-7-7-7-7-7-7-7--------------------------------
A#---------7-7-7-7-7-7-7-7-----------------7-7-7-7-7-7-7-7----------------
F#------------------------------------------------------------------------


c---------------------------------------------
C---------------------------------------------
G#--------------------------------------------
D#--------------------------------------------
A#-15--15--15--15----------------------x4-----
F#------------------0-0-0-0-0-0-0-0-----------


      2nd time just play this________________________________________________________
     |
c------------------------------------------------------------------------------------
C------------------------------------------------------------------------------------
G#-----------------------------------------------------------------------------------
D#-----------------------------------------------------------------------------------  x2
A#-15\12-12-12-12-12-10-12-12\15-12-10-10-12-12-10-12-12-12-12-12-10-12-10\7-7-7-7-7/
F#-----------------------------------------------------------------------------------


c---------------------------------------------
C---------------------------------------------
G#--------------------------------------------
D#--------------------------------------------
A#-8-8-8-8-8-10-8-7----------------------x4---
F#-0-0-0-0-0-0--0-0-0-0-0-0-0-0-0-0-----------
                    ______P.M._____

2nd chorus
c-----------------------------------------------------------------------------
C-----------------------------------------------------------------------------
G#----------------------------------------------------------------------------
D#-------7-7-7-7-----------------7-7-7-7-7-7----------------------------------
A#---------------7-7-7-7-7-7-7-7--------------------------------------7-7-7-7-
F#-5-5-5-------------------------------------5-5-5-5-5-5-5-5---0-0-0----------


c------------------------------------------------------------------------------
C------------------------------------------------------------------------------
G#-----------------------------------------------------------------------------
D#-----------------------------------------------------------------------------
A#-----------------10-10-10-10-10-10-10-10-10-10-10-10\12-12-12-12-12-12-12-12-
F#-5-5-5-5-5-5-5-5-------------------------------------------------------------


c-------------------------------------------------------------------------   dont know the 
C-------------------------------------------------------------------------   rest :S
G#------------------------------------------------------------------------
D#-------7-7-7-7-----------------7-7-7-7-7-7-7-7--------------------------
A#---------------7-7-7-7-7-7-7-7---------------------------------------------------7-7-7-7-
F#-5-5-5------------------------------------------5-5-5-5-5-5-5-5--0-0-0-0-0-0-0-0---------

thats all ive got, i wish i had chosen an easier song!
i dont think the chorus is quite right but at least it gives you something to work on
any comments / corrections welcome, jonline01@hotmail.com
Comments