Placebo - My Sweet Prince Chords & Tabs

 

My Sweet Prince Chords & Tabs

Placebo Chords & Tabs

Version: 1 Type: Tab 0 ratings
1 star 2 stars 3 stars 4 stars 5 stars
comments

My Sweet Prince Tab

My sweet Prince by Placebo
TheInquisitions@yahoo.com

Truthfully, I got these tabs from someone else, 
but I revised them a lot, they're at least readable now. 
Tune in F

"Intro/main riff"  [(c)]

-------------------------------------------------------
-----------5-4------------5-4-------5-4-------5-4------
--------6-------------5---------6---------6------------
------6-----------6---------6---------6----------------
--4------------3---------4---------0-------------------
-------------------------------------------------------
[ Tab from: http://www.guitartabs.cc/tabs/p/placebo/my_sweet_prince_tab.html ]
-------------------------------------------------------------------
-------------5-4------------5-4------------5-4------------5-4------
-----6----6---------6----6---------6----6---------6----6------------
---6--------------6--------------6--------------6------------------
----------------0-----0-----------------------0-----0----------4---
-0-----0-----------------------0-----0-----------------------------

-----------------------------------------------------------------
----------------------------------------------------------------
--6---------------------5--------------------------------5-------
----------------------------------------------------------------
----------------------------------------------------------------
-----------------------------------------------------------------

End

-------------------------------------------------------------
------------------------5-4-------------------------5-4------
------6-----6-----6-----------------6-----6-----6-------------
----6-----6-----6---------------6-----6-----6----------------
------------------------------0-----0-----0-----0-----------
--0-----0-----0-----0----------------------------------------
Comments