Placebo - My Sweet Prince Chords & Tabs

 

My Sweet Prince Chords & Tabs

Placebo Chords & Tabs

Version: 2 Type: Bass Tab 0 ratings
1 star 2 stars 3 stars 4 stars 5 stars
comments

My Sweet Prince Bass Tab

   
My Sweet PrincE By PLacebo

Normal Tuning [E A D G]......()-hold note
TAB By Andy Taylor

verse

G--------------------------------I
D--------------------(6)---(4)---I
A---(0)---(4)---(6)--------------I
E--------------------------------I

"Me and The Dragon" part
[ Tab from: http://www.guitartabs.cc/tabs/p/placebo/my_sweet_prince_btab_ver_2.html ]
G-----------------I
D-------------6---I
A-----4----6------I
E-----------------I

"You Are The ONe" Part

G--------------------------------------------------------I
D-------------(6)------------(6)------------(6)----6---4-I
A--------(6)------------(6)------------(6)---------------I
E---(0)-------------(0)-----------(0)--------------------I
Comments