Placebo - Meds Chords & Tabs

 

Meds Chords & Tabs

Placebo Chords & Tabs

Version: 1 Type: Tab

Meds Tab

   
Well this is a song from their new album, Meds, which isn't actually due to be released 
March, but it leaked and I downloaded it. This song pwnz.

Song - Meds
Band - Placebo
Album - Meds (get now)
Tuning - Standard (E A D G B E)

This is the way I play it and it seems to work.

Verse (played in chorus too) (clean)
-0-0-0-0-0-0-0-00-0-0-0-0-0-0-0-00-0-0-0-0-0-0-0-00-0-0-0-0-0-0-0-00-|
-0-0-0-0-0-0-0-00-0-0-0-0-0-0-0-00-0-0-0-0-0-0-0-00-0-0-0-0-0-0-0-00-|
-4-4-4-4-4-4-4-44-4-4-4-4-4-4-4-44-4-4-4-4-4-4-4-44-4-4-4-4-4-4-4-44-|
-2-2-2-2-2-2-2-22-0-0-0-0-0-0-0-00-0-0-0-0-0-0-0-00-0-0-0-0-0-0-0-00-|
------------------0-0-0-0-0-0-0-00-3-3-3-3-3-3-3-33-2-2-2-2-2-2-2-22-|
------------------3-3-3-3-3-3-3-33-----------------------------------|
[ Tab from: http://www.guitartabs.cc/tabs/p/placebo/meds_tab.html ]
Chorus (distorted, first time without drums)
-----------------------------------------|
-----------------------------------------|
-----------------------------------------|
-4-5---4-4-4-4-7---4-4-4-4-5---4-4-4-4-7-|
-----------------------------------------|
-----------------------------------------|

This is played during second verse along after two things of the clean thingey.
(distorted)
-------------------------|
-------------------------|
-9-9---12-12---9-9---8-8-|
-------------------------|
-7-7---10-10---7-7---6-6-|
-------------------------|

This is just what I play for the bridge, probably not right:
-0-0-0-0-0-0-0-00------0-0-0-0-0-0-0-00-0-0-0-0-0-0-0-00------|
-0-0-0-0-0-0-0-00------0-0-0-0-0-0-0-00-0-0-0-0-0-0-0-00------|
-4-4-4-4-4-4-4-44------4-4-4-4-4-4-4-44-4-4-4-4-4-4-4-44------|
-0-0-0-0-0-0-0-00-(x4)-2-2-2-2-2-2-2-22-2-2-2-2-2-2-2-22-(x4)-| x2
--------------------------------------------------------------|
--------------------------------------------------------------|

ORDER
Verse x 6
Chorus x 2
Verse x 4
Chorus x 4
Bridge
Verse x 7

Download this album now. NOW. You downloading yet?

Your friendly neighbourhood stalker,
Shotgun Joe