Placebo - Hang On To Your Iq Chords & Tabs

 

Hang On To Your Iq Chords & Tabs

Placebo Chords & Tabs

Version: 3 Type: Tab 0 ratings
1 star 2 stars 3 stars 4 stars 5 stars
comments

Hang On To Your Iq Tab

|----------------------------------------------|
|----------------------------------------------|
|--4-6-4-4-4-4-4-4-6-4-4-4-4-4-4-6-4-4-4-4--4--|
|------7-7-7-7-------7-7-7-7-------6-6-6-6-----|
|------0-0-0-0-------0-0-0-0-------7-7-7-7-----|
|----------------------------------0-0-0-0-----|

Rhy fig.1 verse

|---------------------------|
|---------------------------|
|--4-4-4-4-4-4-4-4-4-4-4-4--|
|--6-6-6-6-6-6-6-6-6-6-6-6--|
|--7-7-7-7-7-7-7-7-7-7-7-7--|
|--0-0-0-0-0-0-0-0-0-0-0-0--|

|------------------------------------------------------------------|
|--12-12-12-12-12-12-15-15-15-15-15-15-12-12-13-13-12-12-12-12-13--|
|--11-11-11-11-11-11-11-11-11-11-11-11-11-11-12-12-11-11-11-11-12--|
|--10-10-10-10-10-10-10-10-10-10-10-10-10-10-10-10-10-10-10-10-10--|
|------------------------------------------------------------------|
|------------------------------------------------------------------|

Rhy fig.2 chorus

|---------------|
|--13-12-12-12--|
|--12-11-11-11--|
|--10-10-10-10--|
|---------------|
|---------------|
[ Tab from: http://www.guitartabs.cc/tabs/p/placebo/hang_on_to_your_iq_tab_ver_3.html ]
|-------------------------------------------------------|
|-------------------------------------------------------|
|-------------------------------------------------------|
|--11-11-11-11-11-14-14-14-14-7-7-7-7-7-9-9-9-7-7-7-11--|
|-------------------------------------------------------|
|-------------------------------------------------------|

Sort of solo bit.

|------------------------------------------------------|
|------------------------------------------------------|
|------------------------------------------------------|
|--11-11-11-11-16-16-16-14-14-14-14-7-7-7-7-7-7-7-7-7--|
|------------------------------------------------------|
|------------------------------------------------------|

|-------------------------------------------------------------|
|-------------------------------------------------------------|
|-------------------------------------------------------------|
|--7-7-12-12-12-12-18-18-16-19-11-11-11-11-14-14-14-14-4-4-4--|
|-------------------------------------------------------------|
|-------------------------------------------------------------|

|---------------|
|---------------|
|---------------|
|--4-7-7-7-7----|
|------------7--|
|---------------|
Comments