Placebo - Haemoglobin Chords & Tabs

 

Haemoglobin Chords & Tabs

Placebo Chords & Tabs

Version: 2 Type: Tab 0 ratings
1 star 2 stars 3 stars 4 stars 5 stars
comments

Haemoglobin Tab

Tabbed by: Daniel Bostock
Album: Black Market Music
It sounds pretty accurrate, hope you find it useful.

Intro

B|------------|
B|------------|
G|------------|
D|-8-8-8-8----|
A|-6-x-6-x----|
E|-7-6-7-6----|

1st verse

B|---0----|
B|---0----|
G|-8-12---|
D|-8-12---|
A|-6-10---|
E|-7-11---| x4

Chorus

B|-------------------------------------------------------|
B|-------------------------------------------------------|
G|----------4--4--------4-3-3----------------------------|
D|---4--4-4------4--4-4-------4--4-4-6--6-4--4-4-6-6-6---|
A|-------------------------------------------------------|
E|-------------------------------------------------------| x2

2nd & 3rd Verse

[ Tab from: http://www.guitartabs.cc/tabs/p/placebo/haemoglobin_tab_ver_2.html ]
B|-------|
B|-------|
G|-8-----|
D|-8-8---|
A|-6-8---|
E|-7-7---| x4

Bridge (after Chorus)
B|----------------------------------------------------------------------------------------------------------|
B|----------------------------------------------------------------------------------------------------------|
G|-11-8-8-8-8-8-8-8-8-11-11-11-11-11-11-11-11-8-11-8-8-8-8-8-8-8-11--11--11--11-8-11-8-8-8-8-8-8-8-8-8-8----|
D|----------------------------------------------------------------------------------------------------------|
A|----------------------------------------------------------------------------------------------------------|

x2

Intro
1st Verse
Chorus
2nd Verse
Chorus
Bridge
3rd Verse
Chorus
Bridge
Comments