Placebo - Haemoglobin Chords & Tabs

 

Haemoglobin Chords & Tabs

Placebo Chords & Tabs

Version: 1 Type: Tab 0 ratings
1 star 2 stars 3 stars 4 stars 5 stars
comments

Haemoglobin Tab

"Haemoglobin" by Placebo
From the album "Black Market Music"
Tabbed by Patrick Vacek, with a lot of assistance from Chris Shaw
Standard Tuning

Intro
e|-------------------|
B|-------------------|
G|-------------------|
D|---8---8---8---8---|
A|---6-------6-------|
E|---7---6---7---6---|

Verse
e|-----------|
B|-----------|
G|---8-------|
D|---8---6---|
A|---6---6---|
E|---7---4---| x4

Chorus 1 Rhythm
e|--------------|
B|--------------|
G|----------8---|
D|---9------8---|
A|---9------6---|
E|---7----------| x2
[ Tab from: http://www.guitartabs.cc/tabs/p/placebo/haemoglobin_tab.html ]
Lead
e|-------------------------------------------------------|
B|-------------------------------------------------------|
G|----------4--4--------4-3-3----------------------------|
D|---4--4-4------4--4-4-------4--4-4-6--6-4--4-4-6-6-6---|
A|-------------------------------------------------------|
E|-------------------------------------------------------| x2

Verse 2 - same as verse 1

Chorus 2 Rhythm
e|--------------------------------------------------------|
B|--------------------------------------------------------|
G|----------8-------------8------4-------------4----------|
D|---9------8------9------8------4------4------4------4---|
A|---9------6------9------6------2------4------2------4---|
E|---7-------------7--------------------2-------------2---|
Chorus 2 Lead is same as before, but x4

Bridge
e|----------------------------|
B|----------------------------|
G|----------------------------|
D|----------------------------|
A|---6---4--2--1-2---1--------|
E|---------------------4--2---| x2

Repeat verse, chorus 2, bridge (x4)

End on
e|-------|
B|-------|
G|-------|
D|-------|
A|---6---|
E|-------|
Comments