Placebo - Every You Every Me Chords & Tabs

 

Every You Every Me Chords & Tabs

Placebo Chords & Tabs

Version: 8 Type: Tab 0 ratings
1 star 2 stars 3 stars 4 stars 5 stars
comments

Every You Every Me Tab

intro/verse

e|-------------------------------------------------------------------|
B|-------------------------------------------------------------------|
G|----9---------9---------9--------9---------------------------------|
D|----9--0-0----9---------9--0-0---9--0-0----------------------------|
A|----5--5-7----5--10-8---5--5-7---5--5-7----------------------------|
E|-------6-8-------6--6------6-8------6-8----------------------------|

Chorus
[ Tab from: http://www.guitartabs.cc/tabs/p/placebo/every_you_every_me_tab_ver_8.html ]
e|--------------------------------------------------------------------|
B|--------------------------------------------------------------------|
G|--------------------------7-----------------------------------------|
D|--5-----------------------7-----------------------------------------|
A|--5-----------------------5-----------------------------------------|
E|--6---------------------------------------------------------------=-|
Carve your name into my arm, Instead of stressed I lie here charmed

e|--------------------------------------------------------------------|
B|--------------------------------------------------------------------|
G|3-------------------------------------------------------------------|
D|3----------------------------3--------7-------------8---------------|
A|1----------------------------3--------7-------------8---------------|
E|-----------------------------1--------5-------------6---------------|
'Cause there's nothing else to do, Every me and every you
Comments