Placebo - Every You Every Me Chords & Tabs

 

Every You Every Me Chords & Tabs

Placebo Chords & Tabs

Version: 3 Type: Tab 0 ratings
1 star 2 stars 3 stars 4 stars 5 stars
comments

Every You Every Me Tab

#----------------------------------PLEASE NOTE---------------------------------#
#This file is the author's own work and represents their interpretation of the #
#song. You may only use this file for private study, scholarship, or research. #
#------------------------------------------------------------------------------#

Placebo - Every You Every Me
Transcribed by J C 
#----------------------------------PLEASE NOTE---------------------------------#
#This file is the author's own work and represents their interpretation of the #
#song. You may only use this file for private study, scholarship, or research. #
#------------------------------------------------------------------------------#

Any comments, suggestions etc to div793@yahoo.com

This should be played with some distortion and the intro should be clean and 
without any bass

INTRO

e------------------------------------------------------------------------
B------------------------------------------------------------------------
G------------------------------------------------------------------------
D---9--9--9--9--9--9--9--9---9--9--9--9--9--9--9--9----------------------
A---7--7--7--7--7--7--7--7---7--7--7--7--7--7--7--7----------------------
E---0--0--0--0--0--0--0--0---8--8--8--8-10-10-10-10----------------------


e------------------------------------------------------------------------
B------------------------------------------------------------------------
G------------------------------------------------------------------------
D---9--9--9--9--9--9--9--9---9--9--9--9--9--9--9--9----------------------
A---7--7--7--7--7--7--7--7---7--7--7--7--7--7--7--7----------------------
E---0--0--0--0--0--0--0--0---8--8--8--8--7--7--7--7----------------------

e------------------------------------------------------------------------
B------------------------------------------------------------------------
G------------------------------------------------------------------------
D---9--9--9--9--9--9--9--9---9--9--9--9--9--9--9--9----------------------
A---7--7--7--7--7--7--7--7---7--7--7--7--7--7--7--7----------------------
E---0--0--0--0--0--0--0--0---8--8--8--8-10-10-10-10----------------------


e------------------------------------------------------------------------
B------------------------------------------------------------------------
G------------------------------------------------------------------------
D---9--9--9--9--9--9--9--9---9--9--9--9--9-------------------------------
A---7--7--7--7--7--7--7--7---7--7--7--7--7-------------------------------
E---0--0--0--0--0--0--0--0---8--8--8--8--7-------------------------------

VERSE 1

e------------------------------------------------------------------------
B------------------------------------------------------------------------
G------------------------------------------------------------------------
D---9--9--9--9--9--9--9--9---9--9--9--9--9--9--9--9----------------------
A---7--7--7--7--7--7--7--7---7--7--7--7--7--7--7--7----------------------
E---0--0--0--0--0--0--0--0---8--8--8--8-10-10-10-10----------------------



e------------------------------------------------------------------------
B------------------------------------------------------------------------
G------------------------------------------------------------------------
D---9--9--9--9--9--9--9--9---9--9--9--9--9--9--9--9----------------------
A---7--7--7--7--7--7--7--7---7--7--7--7--7--7--7--7----------------------
E---0--0--0--0--0--0--0--0---8--8--8--8--7--7--7--7----------------------



e------------------------------------------------------------------------
B------------------------------------------------------------------------
G------------------------------------------------------------------------
D---9--9--9--9--9--9--9--9---9--9--9--9--9--9--9--9----------------------
A---7--7--7--7--7--7--7--7---7--7--7--7--7--7--7--7----------------------
E---0--0--0--0--0--0--0--0---8--8--8--8-10-10-10-10----------------------



e------------------------------------------------------------------------
B------------------------------------------------------------------------
G------------------------------------------------------------------------
D---9--9--9--9--9--9--9--9---9--9--9--9--9--9--9--9----------------------
A---7--7--7--7--7--7--7--7---7--7--7--7--7--7--7--7----------------------
E---0--0--0--0--0--0--0--0---8--8--8--8--7--7--7--7----------------------



e------------------------------------------------------------------------
B------------------------------------------------------------------------
G------------------------------------------------------------------------
D---10-10-10-10-10-10-10-10--10-10-10-10-10-10-10-10---------------------
A---10-10-10-10-10-10-10-10--10-10-10-10-10-10-10-10---------------------
E---8--8--8--8--8--8--8--8---8--8--8--8--8--8--8--8----------------------



e------------------------------------------------------------------------
B------------------------------------------------------------------------
G------------------------------------------------------------------------
D---9--9--9--9--9--9--9--9---9--9--9--9--9--9--9--9-----------------------
A---7--7--7--7--7--7--7--7---7--7--7--7--7--7--7--7-----------------------
E---0--0--0--0--0--0--0--0---0--0--0--0--0--0--0--0-----------------------


[ Tab from: http://www.guitartabs.cc/tabs/p/placebo/every_you_every_me_tab_ver_3.html ]
e------------------------------------------------------------------------
B------------------------------------------------------------------------
G------------------------------------------------------------------------
D---10-10-10-10-10-10-10-10--10-10-10-10-10-10-10-10---------------------
A---10-10-10-10-10-10-10-10--10-10-10-10-10-10-10-10---------------------
E---8--8--8--8--8--8--8--8---8--8--8--8--8--8--8--8----------------------



e------------------------------------------------------------------------
B------------------------------------------------------------------------
G------------------------------------------------------------------------
D---5--5--5--5--5--5--5--5---9--9--9--9--9--9--9--9----------------------
A---5--5--5--5--5--5--5--5---9--9--9--9--9--9--9--9----------------------
E---3--3--3--3--3--3--3--3---7--7--7--7--7--7--7--7----------------------


VERSE 2

e------------------------------------------------------------------------
B------------------------------------------------------------------------
G------------------------------------------------------------------------
D---9--9--9--9--9--9--9--9---9--9--9--9--9--9--9--9----------------------
A---7--7--7--7--7--7--7--7---7--7--7--7--7--7--7--7----------------------
E---0--0--0--0--0--0--0--0---8--8--8--8-10-10-10-10----------------------



e------------------------------------------------------------------------
B------------------------------------------------------------------------
G------------------------------------------------------------------------
D---9--9--9--9--9--9--9--9---9--9--9--9--9--9--9--9----------------------
A---7--7--7--7--7--7--7--7---7--7--7--7--7--7--7--7----------------------
E---0--0--0--0--0--0--0--0---8--8--8--8--7--7--7--7----------------------



e------------------------------------------------------------------------
B------------------------------------------------------------------------
G------------------------------------------------------------------------
D---9--9--9--9--9--9--9--9---9--9--9--9--9--9--9--9----------------------
A---7--7--7--7--7--7--7--7---7--7--7--7--7--7--7--7----------------------
E---0--0--0--0--0--0--0--0---8--8--8--8-10-10-10-10----------------------



e------------------------------------------------------------------------
B------------------------------------------------------------------------
G------------------------------------------------------------------------
D---9--9--9--9--9--9--9--9---9--9--9--9--9--9--9--9----------------------
A---7--7--7--7--7--7--7--7---7--7--7--7--7--7--7--7----------------------
E---0--0--0--0--0--0--0--0---8--8--8--8--7--7--7--7----------------------



e------------------------------------------------------------------------
B------------------------------------------------------------------------
G------------------------------------------------------------------------
D---10-10-10-10-10-10-10-10--10-10-10-10-10-10-10-10---------------------
A---10-10-10-10-10-10-10-10--10-10-10-10-10-10-10-10---------------------
E---8--8--8--8--8--8--8--8---8--8--8--8--8--8--8--8----------------------



e------------------------------------------------------------------------
B------------------------------------------------------------------------
G------------------------------------------------------------------------
D---7--7--7--7--7--7--7--7---5--5--5--5--5--5--5--5----------------------
A---7--7--7--7--7--7--7--7---7--7--7--7--7--7--7--7----------------------
E---0--0--0--0--0--0--0--0---0--0--0--0--0--0--0--0----------------------



e------------------------------------------------------------------------
B------------------------------------------------------------------------
G------------------------------------------------------------------------
D---10-10-10-10-10-10-10-10--10-10-10-10-10-10-10-10---------------------
A---10-10-10-10-10-10-10-10--10-10-10-10-10-10-10-10---------------------
E---8--8--8--8--8--8--8--8---8--8--8--8--8--8--8--8----------------------


e------------------------------------------------------------------------
B------------------------------------------------------------------------
G------------------------------------------------------------------------
D---5--5--5--5--5--5--5--5---9--9--9--9--9--9--9--9----------------------
A---5--5--5--5--5--5--5--5---9--9--9--9--9--9--9--9----------------------
E---3--3--3--3--3--3--3--3---7--7--7--7--7--7--7--7----------------------



CHORUS

e------------------------------------------------------------------------
B------------------------------------------------------------------------
G------------------------------------------------------------------------
D---10-10-10-10-10-10-10-10--10-10-10-10-10-10-10-10---------------------
A---10-10-10-10-10-10-10-10--10-10-10-10-10-10-10-10---------------------
E---8--8--8--8--8--8--8--8---8--8--8--8--8--8--8--8----------------------

Every me and every you ...


e------------------------------------------------------------------------
B------------------------------------------------------------------------
G------------------------------------------------------------------------
D---5--5--5--5--5--5--5--5---9--9--9--9--9--9--9--9----------------------
A---5--5--5--5--5--5--5--5---9--9--9--9--9--9--9--9----------------------
E---3--3--3--3--3--3--3--3---7--7--7--7--7--7--7--7----------------------
Comments