Placebo - Every Me And Every You Chords & Tabs

 

Every Me And Every You Chords & Tabs

Placebo Chords & Tabs

Version: 1 Type: Tab 1 rating
1 star 2 stars 3 stars 4 stars 5 stars
comments

Every Me And Every You Tab

Its a little like the other ones.if you dont think it sound like it 
then watch the lastest Sorry Flip skate video.

1-----------------------------------------------------------------
2-----------------------------------------------------------------
3-----------------------------------------------------------------X2
4-----------------------------------------------------------------
5-----------------------------------------------------------------
6-000000000-8888-10 10 10---00000000-8888-7777--------------------
[ Tab from: http://www.guitartabs.cc/tabs/p/placebo/every_me_and_every_you_tab.html ]
1-----------------------------------------------------------------
2-----------------------------------------------------------------
3-----------------------------------------------------------------
4-9-9-9-9-9-9-9-9- 9-9-9-9-9---9--9--9--9--9-9-9-9-9-9-9-9- 9-9-9-9
5-7-7-7-7-7-7-7-7- 7-7-7-7-7---7--7--7--7--7-7-7-7-7-7-7-7- 7-7-7-7
6-0-0-0-0-0-0-0-0--8-8-8-8-8---10-10-10-10-0-0-0-0-0-0-0-0- 8-8-8-8

1--------------------------------------------------------------
2--------------------------------------------------------------X2
3--------------------------------------------------------------
4-9-9-9-9------------------------------------------------------
5-7-7-7-7------------------------------------------------------
6-7-7-7-7------------------------------------------------------
Comments