Placebo - English Summer Rain Chords & Tabs

 

English Summer Rain Chords & Tabs

Placebo Chords & Tabs

Version: 1 Type: Tab 0 ratings
1 star 2 stars 3 stars 4 stars 5 stars
comments

English Summer Rain Tab

----------------------------------------------------------------------------
		        English summer rain - Placebo
----------------------------------------------------------------------------
Tabbed by: mucebo
Email:schep_vreugde_en_leef@hotmail.com

standard tuning
[ Tab from: http://www.guitartabs.cc/tabs/p/placebo/english_summer_rain_tab.html ]
inro: computer thing + bass (look at my other tab)
high keyboard riff:
e|---------------------------------------------------|
B|-11------10----9---7---6---4---11------and repeat--|
G|----10------11---8---6---5---3----10---------------|
D|---------------------------------------------------|
A|---------------------------------------------------|
E|---------------------------------------------------|
 the other guitar:
e|--------------|--------------|--------------|--------------|
B|--------------|--------------|--------------|--------------|
G|--------------|--------------|-----3--------|--------------|
D|-----3--------|-----3--------|--------------|-----3--------|
A|-4-1---1-4--1-|-4-1---1-4--1-|-4-1---1-4--1-|-4-1---1-4--1-|
E|--------------|--------------|--------------|--------------|

and in the end these chords are played: 
e|---------------------------------------------------|
B|---------------------------------------------------|
G|--6-6-6-6---10-10---3-3-3-3------------------------|
D|--6-6-6-6---10-10---3-3-3-3------------------------|
A|---------------------------------------------------|
E|---------------------------------------------------|

until now, these were the only things I could recognize to play on the guitar
listen to the song when these pieces are played, at the end all together, so at
least with three guitars, if you don't have a keyboard. for the bass-lines, look
at my other tab, whose very easy.
Placebo rocks!!!!
Comments