Placebo - English Summer Rain Chords & Tabs

 

English Summer Rain Chords & Tabs

Placebo Chords & Tabs

Version: 2 Type: Bass Tab

English Summer Rain Bass Tab

   
-------------------------------------------------------------------------------
			     ENGLISH SUMMER RAIN - Placebo
-------------------------------------------------------------------------------

This is a great song, I tabbed it and it's 100% correct.  I'll eat my tuner if
this tab is wrong in any way shape or form. 


Tuning: Standard, just as it says on the tin.

You play two things throughout this entire song.  Wait for Brain to sing 'Always
stays the same... etc.' twice, and then come in with the drums.
[ Tab from: http://www.guitartabs.cc/tabs/p/placebo/english_summer_rain_btab_ver_2.html ]
G|---------------------------------------------------------------------------|
D|--------6-8--------8-6--------6-8------8\6---------------------------------|
A|-1----------1--------------------------------------------------------------|
E|-----------------------2----------2----------------------------------------|

You play this without stopping pretty much.  Feel free to add fuzz or twiddle
 whenever you feel like it.  However, when the drums almost cut oput and Brain
starts singing 'Take a breath, count to ten...', then you play this until the
guitar comes back in.

G|---------------------------------------------------------------------------|
D|---------------------------------------------------------------------------|
A|-1-1-1-1-1-1-1-1-----------------------------------------------------------|
E|-----------------2-2-2-2-2-2-2-2-------------------------------------------|

There we go, it's done, enjoy folks.


| /  slide up
| \  slide down
| h  hammer-on
| p  pull-off
| ~  vibrato
| +  harmonic
| x  Mute note
===============================================================================