Placebo - Daddy Cool Chords & Tabs

 

Daddy Cool Chords & Tabs

Placebo Chords & Tabs

Version: 1 Type: Bass Tab

Daddy Cool Bass Tab

   
Title: Daddy cool
Artist: Placebo
Album: ?
Tabber: Steph
Email: cyberbassist@hotmail.com


Intro
    F               D#
G|--------------------------------------|
D|*-----------6-5----------------------*|
A|*-8-8-8-8-8-----8-6-6-6-6-6---6-7-8--*|
E|----------------------------8---------|
[ Tab from: http://www.guitartabs.cc/tabs/p/placebo/daddy_cool_btab.html ]
Main riff
    F               D#              C
G|----------------------------------------------------|
D|*-----------6-5------------------------------------*|
A|*-8-8-8-8-8-----8-6-6-6-6-6---6-------------6-7-8--*|
E|----------------------------8---9-8-8-8-8-8---------|


Break
G|---------------------------------------|
D|---------------------------------------|
A|-8~--6~-------8~--6~-------------------|
E|---------9~-----------9~---------------|

EnJoY!