Placebo - Bulletproof Cupid Chords & Tabs

 

Bulletproof Cupid Chords & Tabs

Placebo Chords & Tabs

Version: 2 Type: Tab 0 ratings
1 star 2 stars 3 stars 4 stars 5 stars
comments

Bulletproof Cupid Tab

   
-------------------------------------------------------------------------------
			    Bulletproof Cupid  Placebo 
-------------------------------------------------------------------------------

Tabbed by:DasPop
Email:schep_vreugde_en_leef@hotmail.com

standard PLacebo tuning: CAPO 1 fret
(all relative to capo)

The intro 
e|-------------------------|
B|-------------------------|
G|-------------------------|
D|-7-7-7-10-10-9-9-9-9-9-9-|
A|-5-5-5--8--8-7-7-7-7-7-7-| repeat this four times
E|-x-x-x-x--x--x-x-x-x-x-x-|

Verse
Guitar one                        
e|-------------------------|  
B|-------------------------|
G|-7-7-7-10-10-9-9-9-9-9-9-|
D|-7-7-7-10-10-9-9-9-9-9-9-|
A|-5-5-5--8--8-7-7-7-7-7-7-|
E|-------------------------|                            

Guitar two (after four times guitar one)
e|-----------------------|
B|-----------------------|
G|-----------------------|
D|-----------------------|
A|-5-5-5-8-8-7-7-7-7-7-7-|
E|-----------------------|
After you 've played the verse eight times, the piece I call the pre-chorus starts:
Pre-chorus
Guitar one
e|-------------------------------------------------|
B|-------------------------------------------------|
G|-7---9-6---9-7---9-6---9-7---9-6---9-7---9-6-----|
D|-7---9-6---9-7---9-6---9-7---9-6---9-7---9-6-----|
A|-5---7-4---7-5---7-4---7-5---7-4---7-5---7-4-----|
E|-------------------------------------------------|

Guitar two
e|-------------------------------------|
B|-------------------------------------|
G|-------------------------------------|
D|-------------------------------------| playt this during the PC
A|-5-5-7-5-7-5-7-5-7b-3-3-6-3-6-3-7b-5-|
E|-------------------------------------|
[ Tab from: http://www.guitartabs.cc/tabs/p/placebo/bulletproof_cupid_tab_ver_2.html ]
Chorus
Guitar one
e|----------------------------------------------|
B|----------------------------------------------|
G|----------------------------------------------|
D|-8-5-5-5--8-8-8-8-8-8-8--5-5-5--8-8-8-8-8-8-8-|
A|-8-5-5-5--8-8-8-8-8-8-8--5-5-5--8-8-8-8-8-8-8-|
E|-6-3-3-3--6-6-6-6-6-6-6--3-3-3--6-6-6-6-6-6-6-|

Guitar two
e|---------------------------------------------------------------------------|
B|-7-7-7-7-3-3-3-3-0-0-0-0-3-3-3-3-7-7-7-7-3-3-3-3-0-0-0-0-3-3-3-3-7-7-7-7---|
G|---------------------------------------------------------------------------|
D|---------------------------------------------------------------------------|
A|---------------------------------------------------------------------------|
E|---------------------------------------------------------------------------|

e|----------------------------------------|
B|-3-3-3-3-0-0-0-0-3-3-3-3-6-6-6-6-6-6-6b-|
G|----------------------------------------|play this just once
D|----------------------------------------|
A|----------------------------------------|
E|----------------------------------------|

verse
Pre-chorus
Chorus (guitar two plays the riff two times)
Outro = Verse
guitar two plays: (you'll have to listen to the song to know where you have
to play the little riff.
e|------------------------------------------------------------------------|
B|------------------------------------------------------------------------|
G|-------------------------------------7-7-7-7--7-7-7-7--7-7-7-7--7-7-7-7-|
D|-7-7-7-7--7-7-7-7--7-7-7-7--7-7-7-7-------------------------------------|
A|------------------------------------------------------------------------|
E|------------------------------------------------------------------------|

Placebo rocks!! Amusez-vous mes petits!
Comments