Placebo - Bulletproof Cupid Chords & Tabs

 

Bulletproof Cupid Chords & Tabs

Placebo Chords & Tabs

Version: 1 Type: Bass Tab 0 ratings
1 star 2 stars 3 stars 4 stars 5 stars
comments

Bulletproof Cupid Bass Tab

Placebo, Bulletproof cupid!

STANDARD TUNING

Bass comes in 00:10

Intro:
G------------------------------------------------------------------
D------------------------------------------------------------------   x1
A-6--6--6--6--6--6--6--6---4---6--6--6--6--6--6--6--6--------------
E------------------------------------------------------------------

Verse:
G------------------------------------------------------------------   
D------------------------------------------------------------------   
A-4---6--6--6--6--6--6--6---4---6--6--6--6--6--6--6--6-------------  
E-------------------------------------------------------6--6--6--6-   

G------------------------------------------------------------------   
D------------------------------------------------------------------  
A-4---6--6--6--6--6--6--6---4---6--6--6--6--6--6--6--6-------------  
E------------------------------------------------------------------

G------------------------------------------------------------------   
D------------------------------------------------------------------   
A-4---6--6--6--6--6--6--6---4---6--6--6--6--6--6--6--6-------------  
E-------------------------------------------------------6--6--6--6-  
[ Tab from: http://www.guitartabs.cc/tabs/p/placebo/bulletproof_cupid_btab.html ]
Pre-Chorus:
G------------------------------------------------------------------
D------------------------------------------------------------------   x4
A-6--6--6--6--6--6--6--6--5--5--5--5--5--5--5--5-------------------
E------------------------------------------------------------------ 

Chorus:
G------------------------------------------------------------------
D------------------------------------------------------------------   x8
A------------------------------------------------------------------
E-4--4--4--4--4--4--4---/7--7--7--7--7--7--7-----------------------

Verse:
G------------------------------------------------------------------   
D------------------------------------------------------------------  
A-4---6--6--6--6--6--6--6---4---6--6--6--6--6--6--6--6-------------  
E------------------------------------------------------------------

G------------------------------------------------------------------   
D------------------------------------------------------------------   
A-4---6--6--6--6--6--6--6---4---6--6--6--6--6--6--6--6-------------  
E-------------------------------------------------------6--6--6--6-  

G------------------------------------------------------------------   
D------------------------------------------------------------------  
A-4---6--6--6--6--6--6--6---4---6--6--6--6--6--6--6--6-------------  
E------------------------------------------------------------------

G------------------------------------------------------------------   
D------------------------------------------------------------------   
A-4---6--6--6--6--6--6--6---4---6--6--6--6--6--6--6--6-------------  
E-------------------------------------------------------6--6--6--6-
Comments