Placebo - Bubblegun Chords & Tabs

 

Bubblegun Chords & Tabs

Placebo Chords & Tabs

Version: 1 Type: Tab 0 ratings
1 star 2 stars 3 stars 4 stars 5 stars
comments

Bubblegun Tab

BUBBLEGUN
BY PLACEBO
FROM THE SLAVE TO THE WAGE SINGLE
2000
----------------------------------

NOTE: guitar1 has to be strummed from the bottom
to the top to sound better


INTRO:

Guitar1:
--------------------
--------------------
--------------------
-------------------- x5
--4--4s9--9s7--7s4--
--4--4s9--9s7--7s4--

------------------
------------------
------------------
------------------
--4--4s9--9--11s--
--4--4s9--9-------

Guitar2: starts a bit later
-------------------------------------------------
-------------------------------------------------
--6----------------------------------------------
----6(repeat this note)--4(repeat this note)--6--repeat
-------------------------------------------------
-------------------------------------------------


VERSE1:

Guitar1:
--------------------
--------------------
--------------------
-------------------- x3
--4--4s9--9s7--7s4--
--4--4s9--9s7--7s4--

------------------
------------------
------------------
------------------
--4--4s9--9--11s--
--4--4s9--9-------


BRIDGE:

Guitar1:
-------------------------------
-------------------------------
-------------------------------
------------8s----------------- x2
--4--4s9--9-----4--4s9--9--8s--
--4--4s9--9-----4--4s9--9------

Guitar2:
-------------------------------------------------------------
-------------------------------------------------------------
------5--6---------------------------------------------------
----3------6(repeat this note)--4--3--4(repeat this note)--6-
--4----------------------------------------------------------
-------------------------------------------------------------
repeat


VERSE2:
[ Tab from: http://www.guitartabs.cc/tabs/p/placebo/bubblegun_tab.html ]
Guitar1:
--------------------
--------------------
--------------------
--------------------repeat
--4--4s9--9s7--7s4--
--4--4s9--9s7--7s4--


BRIDGE


CHORUS:

Guitar1:
-----------------------------------
-----------------------------------
-----------------------------------
-----------------------------------
--4--4s9--9s7--7s4--4--4s9--9--9s--
--4--4s9--9s7--7s4--4--4s9--9--9s--

--------------------
--------------------
--------------------
-------------------- x2
--4--4s9--9s7--7s4--
--4--4s9--9s7--7s4--


BRIDGE:

Guitar1:
-----------------------------------------------------------
-----------------------------------------------------------
-----------------------------------------------------------
------------8s---------------------------------------------
--4--4s9--9-----4--4s9--9----4--4s9--9--11s--4--4s9--9--8s-
--4--4s9--9-----4--4s9--9----4--4s9--9-------4--4s9--9-----

Guitar2:
-------------------------------------------------------------
-------------------------------------------------------------
------5--6---------------------------------------------------
----3------6(repeat this note)--4--3--4(repeat this note)--6-
--4----------------------------------------------------------
-------------------------------------------------------------
repeat


CHORUS:

Guitar1:
-------------------------------------------------------
-------------------------------------------------------
-------------------------------------------------------
--------------------x5---------------------------------
--4--4s9--9s7--7s4------4--4s9--9--9s--4--4s9--9--11s--
--4--4s9--9s7--7s4------4--4s9--9--9s--4--4s9--9-------

---------------------------
---------------------------
---------------------------
--------------------x2-----
--4--4s9--9s7--7s4------4--
--4--4s9--9s7--7s4------4--
Comments